Learn Singing, Guitar, Piano, Bass, Percussion at www.NEATcourses.com
Get Chords at www.NEATchords.com

a great big world
where does the time go
Chords and lyrics

difficulty: intermediate



                Tuning: Half-Step Down

Intro (So you get an idea of the fingerpicking)

    G                           Am

e|---------------------------------------------------------|

B|--0--------0----0--------0----1--------1----1-------1----|

G|-------0-------------0-------------2------------2--------|

D|-----0-------0-----0-------0-----2-------2----2-------2--|

A|------------------------------0------0------0-----0------|

E|--3------3------3------3---------------------------------|

     

    C                           G

e|---------------------------------------------------------|

B|--1--------1----1--------1----0-------0----0H1------1----|

G|-------0-------------0------------0-------------0--------|

D|-----2-------2-----2-------2----0-------0-----0-------0--|

A|--3------3------3------3---------------------------------|

E|------------------------------3-----3------3------3------|

G                Am

Where does the time go?

C                    G

I don't want this to end

G                Am

Where does the time go?

C                      G           D

Let's hang on to the moment we're in

Em            C               G      D

Of all the things we will remember

Em              C                 G              D

The good, the bad, and all the blessings in disguise

Em            C              G    D

Today will stick with me forever

Am           G             D

Even if we have to say goodbye

G                Am

Where does the time go?

C                G

I keep losing track

G                Am

Where does the time go?

C                        G            D

We're too young to get lost looking back

Em            C              G       D

Life doesn't always give us answers

Em               C               G                D

Some dots they won't connect until the years go by

Em             C             G      D

If we're not meant to be together

Am               G             D

Some day we'll know the reasons why

G  Am  C  G

G  Am  C  G D

Em           C               G     D

Of all the things we will remember

Em             C                 G              D

The good, the bad, and all the blessings in disguise

Em           C              G    D

Today will stick with me forever

Am          G           D

Even if we have to say goodbye

G                Am

Where does the time go?

C                     G

I don't want this to end

G                Am

Where does the time go?

C                      G D         G Am C G

Let's hang on to the moment we're in



simplify

key

chords

key

original:   current:  

transpose  


G

Am

C

D

Em

1

2

4

5

6

7

intermediate