Learn Singing, Guitar, Piano, Bass, Percussion at www.NEATcourses.com
Get Chords at www.NEATchords.com

a saving whisper
why cant we bass
Chords and lyrics

difficulty: expert



[Verse 1]Chords are Eb|Dm|Gm|Gm|Eb|Dm|Cm|Cm

G|----------|----------|----------|----------|---------|----------|-----------|-----------|

D|----------|-7-5------|----------|----------|-8-------|-7-5------|-5-3-------|-5---------|

A|-6--------|--------5-|-5-3------|-5--------|-------6-|--------5-|---------3-|---------3-|

E|----------|----------|--------3-|--------3-|---------|----------|-----------|-----------|

G|----------|----------|----------|----------|---------|----------|-----------|-----------|

D|----------|-7-5------|----------|----------|-8-------|-7-5------|-5-3-------|-5---------|

A|-6--------|--------5-|-5-3------|-5--------|-------6-|--------5-|---------3-|---------3-|

E|----------|----------|--------3-|--------3-|---------|----------|-----------|-----------|

[pre-Chorus] Chords are Gm|Bb|Gm|C

G|--------------|--------------|--------------|--------------|

D|--------------|--------------|--------------|--------------|

A|--------------|--------------|----------3-5-|-3----3-5-3---|

E|-3----3-5-3-5-|-6----3-5-3-5-|-3----3-5-----|------------5-|

G|--------------|--------------|--------------|--------------|

D|--------------|--------------|--------------|--------------|

A|--------------|--------------|----------3-5-|-3----3-5-3---|

E|-3----3-5-3-5-|-6----3-5-3-5-|-3----3-5-----|------------5-|

[Chorus]Chords are Bb|Eb|Dm|Cm F|Bb|Eb|Gm|F

G|-------------|-------------|-------------|-------------|

D|-------------|-------8-6---|--------7-5--|-------3---3-|

A|-------8-6---|-6---6-----6-|-5---5-----5-|-3---3---3---|

E|-6---6-----6-|-------------|-------------|-------------|

G|-------------|-------------|-------7-5---|-------5-3---|

D|-------------|-------8-6---|-5---5----5--|-3---3-----3-|

A|-------8-6---|-6---6-----6-|-------------|-------------|

E|-6---6-----6-|-------------|-------------|-------------|

[Verse 2]

G|----------|----------|----------|----------|---------|----------|-----------|-----------|

D|----------|-7-5------|----------|----------|-8-------|-7-5------|-5-3-------|-5---------|

A|-6--------|--------5-|-5-3------|-5--------|-------6-|--------5-|---------3-|---------3-|

E|----------|----------|--------3-|--------3-|---------|----------|-----------|-----------|

[Pre-chorus]

[Chorus 2] As per chorus 1

[Chorus 3]

G|-------------|-------------|--------------|-------------|

D|-------------|-------8-6---|--------7-5---|-------3---3-|

A|-------8-6---|-6---6-----6-|-5----5-----5-|-3---3---3---|

E|-6---6-----6-|-------------|--------------|-------------|

G|-------------|-------------|-------7-5----|-------------|

D|-------------|-------8-6---|-5---5----5---|-3---3-3-3-3-|

A|-------8-6---|-6---6-----6-|--------------|-------------|

E|-6---6-----6-|-------------|--------------|-------------|

[Breakdown]

G|-------------|-------------|--------------|-------------|

D|-------------|-------------|--------------|-------------|

A|-------------|-------------|--------------|-------------|

E|-----6-------|------8------|------6-------|------8------|

G|-------------|-------------|--------------|-------------|

D|-------------|-------------|--------------|-------------|

A|-------------|-------------|--------------|-------------|

E|-----6-------|------8------|------6-------|------8------|

G|-----------|-------|------------|------------|------------|------------|-----------|----------|

D|-----------|-------|------------|------------|------------|------------|-----------|----------|

A|-----------|-------|------8-----|------6-----|------------|------------|-----------|-----6----|

E|-----6-----|-------|------------|------------|-----6------|------6-----|------6----|----------|

       r

G|----------|-----------|-----------|-----------|-----------|-------------|-----------|---------|

D|----------|-----------|-----------|-----------|-----------|-------------|-----------|---------|

A|----------|-----------|-----------|-----------|-----------|-------------|-----------|-8-8-8-8-|

E|----6-----|-----6-----|-----6-----|-----6-----|-----6-----|------6------|-3---3-3---|---------|

[Outro - ie Chorus x4]

G|-------------|-------------|-------------|-------------|

D|-------------|-------8-6---|--------7-5--|-------3---3-|

A|-------8-6---|-6---6-----6-|-5---5-----5-|-3---3---3---|

E|-6---6-----6-|-------------|-------------|-------------|

G|-------------|-------------|-------7-5---|-------5-3---|

D|-------------|-------8-6---|-5---5----5--|-3---3-----3-|

A|-------8-6---|-6---6-----6-|-------------|-------------|

E|-6---6-----6-|-------------|-------------|-------------|

end on Bb.

G|--------------|

D|--------------|

A|--------------|



simplify

key

chords

key

original:   current:  

transpose  


0

expert