Learn Singing, Guitar, Piano, Bass, Percussion at www.NEATcourses.com
Get Chords at www.NEATchords.com

aaron neville
forever my darling bass
Chords and lyrics

difficulty: expert



                Tuning: EADG

G|------------------------------------------------------------------------------------------------|.

D|------------------------------------------------------------------------------------------------|.

A|------------------------------------------------------------------------------------------------|.

E|1-----------------------1-----------------------3-----------------------3-----------------------|.

                                                                                                   . x2

G|------------------------------------------------------------------------------------------------|.

D|------------------------------------------------------------------------------------------------|.

A|3-----------------------3-----------------------------------------------------------3-----------|.

E|------------------------------------------------1-----------------------1-----------------------|.

0:35

G|------------------------------------------------------------------------------------------------|

D|------------------------------------------------------------------------------------------------|

A|------------------------------------------------------------------------------------------------|

E|1-----------------------1-----------------------3-----------------------3-----------------------|

G|------------------------------------------------------------------------------------------------|

D|------------------------------------------------------------------------3-----------------------|

A|3-----------------------3-------------------------------------------------------------------0---|

E|------------------------------------------------1-----------------------------------1---3-------|

0:52

G|------------------------------------------------------------------------------------------------|

D|--------------------------------------------3---------------------------------------------------|

A|1-----------------------1---------------5-------1-----------------------1-----------------------|

E|------------------------------------------------------------------------------------------------|

G|------------------------------------------------------------------------------------------------|

D|3-----------2-----------------------------------------------------------------------------------|

A|------------------------5---------/-5---3-------------------------------3-----------------------|

E|--------------------------------------------5---3-----------------------------------------------|

1:10

G|------------------------------------------------------------------------------------------------|

D|------------------------------------------------------------------------------------------------|

A|------------------------------------------------------------------------------------------------|

E|1-----------------------1-----------------------3-----------------------3-----------------------|

G|------------------------------------------------------------------------------------------------|

D|------------------------------------------------------------------------------------------------|

A|3-----------------------3-----------------------------------------------------------3-----------|

E|------------------------------------------------1-----------------------1-----------------------|

1:28

G|------------------------------------------------------------------------------------------------|

D|------------------------------------------------------------------------------------------------|

A|------------------------------------------------------------------------------------------------|

E|1-----------------------1-----------------------3-----------------------3-----------------------|

G|------------------------------------------------------------------------------------------------|

D|------------------------------------------------------------------------------------------------|

A|3-----------------------3-------------------------------------------------------------------0---|

E|------------------------------------------------1-----------------------1-----------1---3-------|

1:45

G|------------------------------------------------------------------------------------------------|

D|--------------------------------------------3-----------------------------------------------2---|

A|1-----------------------1---------------5-------1-----------------------1---------------3-------|

E|------------------------------------------------------------------------------------------------|

G|------------------------------------------------------------------------------------------------|

D|3-----------2-----------------------------------------------------------------------------------|

A|------------------------5---------/-5---3-------------------------------3-----------------------|

E|--------------------------------------------5---3-----------------------------------------------|

2:03

G|------------------------------------------------------------------------------------------------|

D|------------------------------------------------------------------------------------------------|

A|------------------------------------------------------------------------------------------------|

E|1-----------------------1-----------------------3-----------------------3-----------------------|

G|------------------------------------------------------------------------------------------------|

D|--------------------------------------------------------------------------------------------2---|

A|3-----------------------3-----------------------------------------------------------3---5-------|

E|------------------------------------------------1-----------------------1-----------------------|

2:20

G|------------------------------------------------------------------------------------------------|

D|3-----------------------------------------------------------------------------------------------|

A|------------------------------------------------------------------------------------------------|

E|------------------------1-----------------------3-----------------------3-----------------------|

G|------------------------------------------------------------------------------------------------|

D|--------------------------------------------------------------------------------------------2---|

A|3-----------------------3-----------------------------------------------------------3---5-------|

E|------------------------------------------------1-----------------------1-----------------------|

2:37

G|------------------------------------------------------------------------------------------------|

D|3-----------------------------------------------------------------------------------------------|

A|--------------------------------------------------------------------------------------------5---|

E|------------------------1-----------------------3-----------------------3-----------------------|

G|------------------------------------------------------------------------------------------------|

D|--------------------------------------------------------------------------------------------2---|

A|3-----------------------3-----------------------------------------------------------3---5-------|

E|------------------------------------------------1-----------------------1-----------------------|

2:55

G|------------------------------------------------------------------------------------------------|

D|3-----------------------------------------------------------------------------------------------|

A|------------------------------------------------------------------------------------------------|

E|------------------------1-----------------------3-----------------------3-------------------3---|

G|------------------------------------------------------------------------------------------------|

D|------------------------------------------------------------------------------------------------|

A|3-----------------------3-----------------------------------------------3-----------------------|

E|------------------------------------------------1-----------------------------------5-----------|

3:12

G|------------------------------------------------------------------------------------------------|

D|------------------------------------------------------------------------------------------------|

A|----------------------------------------------------------------------------------------0---1---|

E|1-----------------------1---------------3---5---3-----------------------3-----------------------|

G|------------------------------------------------------------------------------------------------|

D|------------------------------------------------------------------------------------------------|

A|3-----------------------3-----------------------------------5---3---0---------------3-----------|

E|------------------------------------------------1-----------------------1-----------------------|

G|------------------------|

D|------------------------| fades out here.

A|------------------------|



simplify

key

chords

key

original:   current:  

transpose  


0

expert

 

Learn the NEW Way to Sing With Freedom, Confidence, and Control

click to watch now