Learn Singing, Guitar, Piano, Bass, Percussion at www.NEATcourses.com
Get Chords at www.NEATchords.com

aaron neville
please come home for christmas bass
Chords and lyrics

difficulty: expert



                

Verse

G-------------------|----------------|------------------|

D-------5----75-----|------75----5---|------------------|

A-3---7---------7---|-3---------7--7-|------53-----3----|

E-------------------|----------------|--1---------5--5--|

G--------------|-----------|

D----------5---|-----------|

A---3-----7-7--|-------3---|

E--------------|-1----5-5--|

G-----------|---------|--------|---|-------------|

D-----------|---------|--------|---|-------------|

A-------3-6-|--33--20-|---2345-|---|---3---20----|

E-2-5-------|---------|--------|-3-|-----------3-|

Bridge ( played twice)

G------75----75-----|-------75----5--|-----------------

D--3-------------7--|--3---------6-6-|-------5-----75--

A-------------------|----------------|-3---7----------7

E-------------------|----------------|-----------------

G---------------|-----75---5----|------75-----5-----

D--------5--75--|--3------7--7--|--3---------6--6---

A--3---7------7-|---------------|-------------------

E---------------|---------------|-------------------

G-------------|--------------|

D-------------|-----------5--|

A---555--555--|---------57---|

E-------------|--3-----7-----|

Back to verse. This time,however, after the foutrh measure play  this:

G------------|---------------------------|----------

D------------|-----7534------------------|----------

A--3---3567--|-------------3---5------3--|--320-----

E------------|----------------5-----3----|-------3--

Now I'm not going to lie and say this is an easy song. It was months

before I could finally play it right. It helps to listen to this song on

cd, tape, or radio.  Good luck!!



simplify

key

chords

key

original:   current:  

transpose  


0

expert