Learn Singing, Guitar, Piano, Bass, Percussion at www.NEATcourses.com
Get Chords at www.NEATchords.com

aaron neville
speak to me bass
Chords and lyrics

difficulty: expert



                Tuning: EADG

0:06

G|------------------------------------------------------------------------------------------------|

D|------------------------------------------------3-----------------------3-----------------------|

A|3-----------------------3-----------------------------------------------------------------------|

E|------------------------------------------------------------------------------------------------|

G|------------------------------------------------------------------------------------------------|

D|------------------------3-----------------------------------------------------------------------|

A|3-----------------------------------------------1-----------------------------------------------|

E|------------------------------------------------------------------------3-----------------------|

G|------------------------------------------------------------------------------------------------|

D|------------------------5-----------------------3-----------------------3-----------------------|

A|3-----------------------------------3-----------------------------------------------------------|

E|------------------------------------------------------------------------------------------------|

G|------------------------------------------------------------------------------------------------|

D|------------------------3-----------------------3-------------------------------3---3-----5-----|

A|3-----------------------------------------------------------------3-----------------------------|

E|------------------------------------------------------------------------------------------------|

0:32

G|------------------------------------------------------------------------------------------------|

D|------------------------3-----------------------------------------------3-----------------------|

A|3---------------------3-------------------------3-----------------------------------------------|

E|------------------------------------------------------------------------------------------------|

G|------------------------------------------------------------------------------------------------|

D|------------------------3-----------------------------------------------------------------------|

A|3-----------------------------------------------1-----------------------------------------------|

E|------------------------------------------------------------------------3-----------------------|

G|------------------------------------------------------------------------------------------------|

D|------------------------5-----------------------3-----------------------3-----------------------|

A|3-----------------------------------3-----------------------------------------------------------|

E|------------------------------------------------------------------------------------------------|

G|------------------------------------------------------------------------------------------------|

D|5-----------------------5-----------------------3-------------------------------3---3-----5-----|

A|------------------------------------------------------------------3-----------------------------|

E|------------------------------------------------------------------------------------------------|

G|------------------------------------------------------------------------------------------------|

D|------------------------------------------------------------------------------------------------|

A|3-----------------------3-----------------------3-----------------------3-----------------------|

E|------------------------------------------------------------------------------------------------|

1:05

G|------------------------------------------------------------------------------------------------|

D|------------------------------------------------3-----------------------3-----------------------|

A|3-----------------------3-----------------------------------------------------------------------|

E|------------------------------------------------------------------------------------------------|

G|------------------------------------------------------------------------------------------------|

D|------------------------3-----------------------------------------------------------------------|

A|3-----------------------------------3-----------1-----------------------------------------------|

E|------------------------------------------------------------------------3-----------------------|

G|------------------------------------------------------------------------------------------------|

D|------------------------------------------------3-----------------------3-----------------------|

A|3-----------------------3-----------------------------------------------------------------------|

E|------------------------------------------------------------------------------------------------|

G|------------------------------------------------------------------------------------------------|

D|5-----------------------5-----------------------3---------------------------3---3-------5---5---|

A|------------------------------------------------------------------3-----------------------------|

E|------------------------------------------------------------------------------------------------|

1:32

G|------------5-----------------------------3---3-------------------------------------------------|

D|------5-----------------------------------------------3-----3-----------------------------------|

A|3-----------------------------------------------------------------------------------------------|

E|------------------------------------------------------------------------------------------------|

G|------------------------------------------------------------------------------------------------|

D|------------3-----------------------------5---5-------------------------------------------------|

A|3-----------------------------------------------------------------------------------------------|

E|------------------------------------------------------3-----3-----------------------------------|

G|------------------------------------------------------------------------------------------------|

D|------------------------------------------------3-----------------------3-----------------------|

A|3-----------------------3-----------------------------------------------------------------------|

E|------------------------------------------------------------------------------------------------|

G|------------------------------------------------------------------------------------------------|

D|5-----------------------5-----------------------3-----------------------3-----------------------|

A|------------------------------------------------------------------------------------------------|

E|------------------------------------------------------------------------------------------------|

G|------------------------------------------------|

D|------------------------------------------------|

A|3-----------------------3-----------------------|

E|------------------------------------------------|

2:00

G|------------------------------------------------------------------------------------------------|

D|------------------------------------------------------------------------------------------------|

A|3-----------------------------------------------2-----------------------------------------------|

E|------------------------------------------------------------------------------------------------|

G|------------------------------------------------------------------------------------------------|

D|------------------------------------------------------------------------------------------------|

A|0-----------------------------------------------------------------------------5-----6-----5-----|

E|------------------------------------------------4-----------------------------------------------|

G|------------------------------------------------------------------------------------------------|

D|5-----------------5-----5-----------------------5-----------------5-----5-----------------------|

A|------------------------------------------------------------------------------------------------|

E|------------------------------------------------------------------------------------------------|

G|------------------------------------------------------------------------------------------------|

D|------------------------------------------------------------------------------------------------|

A|------------------------------------------------------------------------------------------------|

E|3-----------------3-----3-----------------3-----3-----------------3-----3-----------------------|

2:25

G|------------------------------------------------------------------------------------------------|

D|------------------------------------------------3-----------------------------------------------|

A|3-----------------3-----3-----------------------------------------------3-----------------------|

E|------------------------------------------------------------------------------------------------|

G|------------------------------------------------------------------------------------------------|

D|------------------------3-----------------------------------------------------------------------| fades out

A|3-----------------------------------------------1-----------------------------------------------|   here.



simplify

key

chords

key

original:   current:  

transpose  


0

expert