Learn Singing, Guitar, Piano, Bass, Percussion at www.NEATcourses.com
Get Chords at www.NEATchords.com

afi
jack the ripper
Chords and lyrics

difficulty: beginner



                Intro

Bm Bm Bm Bm G G G G repeat

Bm                 G

Oh, you look so tired

Bm                G 

Mouth slack and wide

Bm                  G

Ill-housed and ill-advised

Bm               Bm

Your face is as mean

         G

As your life has been, so

D        A      Bm

Crash into my arms

         G

I want you

D            A

You don't agree

                 Bm

But you don't refuse

         G

I know you

Bm             G

And I know a place

Bm                   G 

Where no one is likely to pass

Bm                 G

You don't care if it's late

Bm                     G

And, you don't care if you're lost

Bm                 G

And oh, you look so tired

Bm                            G                       

But tonight you presume too much

Bm          G

Too much, too much

Bm                           

And if it's the last thing I ever do

G

I'm gonna get you

Chorus (Times 2)

Below the tab for the chorus the acoustic plays and the lead guitar plays the riff over the top.

Chorus

|------------------------------------------------|

|7-----7-----7-7---7/10--5-----5-----5-5---5-----|

|---7-----7-----7-----------6-----6-----6-----6--|

|------------------------------------------------|

|------------------------------------------------|

|------------------------------------------------|

|--------------------------------------5-5-5-----------|

|5-----5-----5-5/10-10--------5-----5---------8--7-----|

|---7-----7------------11-11-----6------------------7--|

|------------------------------------------------------|

|------------------------------------------------------|

|------------------------------------------------------|

|------------------------------------------------|

|7-----7-----7-7---7/10--5-----5-----5-5---5-----|

|---7-----7-----7-----------6-----6-----6-----6--|

|------------------------------------------------|

|------------------------------------------------|

|------------------------------------------------|

|-------------------------------------------------5-5-5-|

|5-----5-----5-5/10-10--------5-----5----5h7--7---------|

|---7-----7------------11-11-----6-----6----6---6-------|

|-------------------------------------------------------|

|-------------------------------------------------------|

|-------------------------------------------------------|



simplify

key

chords

key

original:   current:  

transpose  


Bm

G

D

A

1

4

5

6

2

beginner