Learn Singing, Guitar, Piano, Bass, Percussion at www.NEATcourses.com
Get Chords at www.NEATchords.com

agalloch
a celebration for the death of man
Chords and lyrics

difficulty: expert



                Chord progression for the whole song is:

Em, Asus2 and Am, Cmaj7 and Cadd9, Asus2 and Am, C

Em:

E||-------||

B||--0----||

G||--0----||

D||--2----||

A||--2----||

E||--0----||

Asus2 and Am:

E||--0----||

B||--0h1--||

G||--2----||

D||--2----||

A||--0----||

E||-------||

Cmaj7 and Cadd9:

E||--0----||

B||--0h3--||

G||--0----||

D||--2----||

A||--3----||

E||--0----||

C:

E||--0----||

B||--1----||

G||--0----||

D||--2----||

A||--3----||

E||--0----||

this song is instrumental so there's no lyrics for it



simplify

key

chords

key

original:   current:  

transpose  


0

expert