Learn Singing, Guitar, Piano, Bass, Percussion at www.NEATcourses.com
Get Chords at www.NEATchords.com

ai kago
broken walls bass
Chords and lyrics

difficulty: expert



                Tuning:

G|------------------------------------------------------------|

D|--2---2---2-2--2 ----------------------------------------4--|

A|------------------5---5---5-5---3--3---3-3--3---2-2--2------|

E|------------------------------------------------------------|

G|---------------------------------------------------------------|

D|--2---2---2-2--2-----------4-5---------------------------------|

A|------------------5---5----------3---3--3-5-3--2---2---2----2--|

E|---------------------------------------------------------------|

G|-----------------------------------------------------------------------------------|

D|----------------------------------5---4 -------------------------------------------|

A|--7-----7---10---7---------7-------------------------------------------------------|

E|-----7--------------7---------9----------------------------------------------------|

G|-----------------------------------------------------------------------------------|

D|-----------------------------9----5---4--------------------------------------------|

A|--7-----7---10---7---------9-------------------------------------------------------|

E|-----7--------------9--------------------------------------------------------------|

G|----------------------------------------------------------------------------|

D|----------------------------------------------------------------------------|

A|--7-----7---10---7-------7--9----10-----10----10----14------10--9--9--9-----|

E|-----7--------------7---------------------------------------------------11--|

First

G|---------------------------------------------------------------------------------------|

D|---------------------------------------------------------------------------------------|

A|---------5---7----7---7----------------------------------------------------------------|

E|-0---7------------------5---7---8---7---5---3---2 -------------------------------------|

Second

G|--------------------------------------------------------------------------------------|

D|--------------------------------------------------------------------------------------|

A|---------5---7----7---7---------5------5-----5  --------------------------------------|

E|-0---7------------------5---7------7------7-------------------------------------------|

Third

G|-------------------------------------------------------------------------------|

D|-------------------------------------------------------------------------------|

A|---------5---7-----7--7------------------------------2--5--5--3--2-------------|

E|-0---7------------------5---7---8---7---5---3---2-2-----------------7---5---2--|

G|---------------------------------------------------------------------------|

D|---------------------------------------------------------------------------|

A|---------------------------------------------------------------------------|



simplify

key

chords

key

original:   current:  

transpose  


0

expert