Learn Singing, Guitar, Piano, Bass, Percussion at www.NEATcourses.com
Get Chords at www.NEATchords.com

akurat
fantasmagorie
Chords and lyrics

difficulty: beginner



                Tuning: Standard

    Fsus2     Csus2  

e|--8------|--3------|

B|--8------|--3------|

G|--10-----|--5------|

D|--10-----|--5------|

A|--8------|--3------|

E|--8------|--3------|

[intro]

Fsus2 Am Fsus2 Am

[verse 1]

Fsus2

Takie w?a?nie s? kszta?ty my?li których nikt nie wymy?li

    Am 

Nie zaprzeczy im nikt bo nikt ich nie zna, nie dowierzam im sam

   Dm

Ulatuj? gdzie?, gdzie czasem mieszkam, dok?d czasem posy?am marzenie

      Am

Wróc? po kolana we ?zach, po szyj? w u?miechach, strumieniem p?yn? na ziemi?.

[chorus]

Dm      Am            Csus2   G     

Esy- floresy, fantasmagorie

            Dm       Am

niewiele tu po mnie,

            Csus2    G

niewiele tu po mnie

Dm      Am            Csus2   G     

Esy- floresy, fantasmagorie

            Dm       Am

niewiele tu po mnie,

            Csus2             G

niewiele tu po mnie, po mnie, po mnie.

[intro]

Fsus2 Am

Fsus2             Am

Takie w?a?nie s?

[verse 2]

Fsus2                                

Takie w?a?nie s? zamy?lenia, chwile pragnienia, jasne

Am

horyzonty na cienkiej linii losu, na pewno tak, na pewno jest to sposób.

      Dm                                        

Takie w?a?nie s? zamy?lenia, chwile pragnienia, jasne

Am

horyzonty na cienkiej linii losu, na pewno tak.

[chorus]

Dm      Am            Csus2  G     

Esy- floresy, fantasmagorie

            Dm       Am

niewiele tu po mnie,

            Csus2    G

niewiele tu po mnie

Dm      Am            Csus2  G     

Esy- floresy, fantasmagorie

            Dm       Am

niewiele tu po mnie,

            Csus2             G

niewiele tu po mnie, po mnie, po mnie.

[intro]

Fsus2 Am Fsus2 Am

[solo]

    Fsus2                     Am       Dm                               Am

e|--------------------------|-------|--------------------------------|------|

B|-------------------10-10--|-------|---------------------10---------|------|

G|--9h10----9h10/12---------|-------|--9h10----10p9h10/12----12-9----|--9---|

D|--------------------------|-------|-----------------------------10-|------|

A|--------------------------|-12----|--------------------------------|------|

E|--------------------------|-------|--------------------------------|------|

    Fsus2                      Am     Dm                    Am

e|---------------------------|-----|---------------------|------------|

B|-----------------10--------|-----|---------------------|--10-10--10-|

G|--9h10---9-10-12-----12-9--|-----|--9h10------9h10/12--|------------|

D|---------------------------|-7---|---------------------|------------|

A|---------------------------|-----|---------------------|------------|

E|---------------------------|-----|---------------------|------------|

[chorus]

Dm      Am            Csus2  G     

Esy- floresy, fantasmagorie

            Dm       Am

niewiele tu po mnie,

            Csus2    G

niewiele tu po mnie

Dm      Am            Csus2  G     

Esy- floresy, fantasmagorie

            Dm       Am

niewiele tu po mnie,

            Csus2             G

niewiele tu po mnie, po mnie, po mnie.

[chorus]

Dm      Am            Csus2  G     

Esy- floresy, fantasmagorie

            Dm       Am

niewiele tu po mnie,

            Csus2    G

niewiele tu po mnie

Dm      Am            Csus2  G     

Esy- floresy, fantasmagorie

            Dm       Am

niewiele tu po mnie,

            Csus2             G

niewiele tu po mnie, po mnie, po mnie.



simplify

key

chords

key

original:   current:  

transpose  


Am

Dm

2

6

0

beginner