Learn Singing, Guitar, Piano, Bass, Percussion at www.NEATcourses.com
Get Chords at www.NEATchords.com

albert lee
im ready bass
Chords and lyrics

difficulty: expert



                Intro:                                       [Break]

G|----------2-----2-----2-----2-----2-----2----

D|-------2-5---2-5---2-5---2-5---2-5---2-5-----

A|--0-2-3-----3-----3-----3-----3-----3------3-

E|-3-------------------------------------------

Verse 1:

G|-----2-----2-----2-----2----------------------2-----2-

D|--2-5---2-5---2-5---2-5--------------------2-5---2-5--

A|-3-----3-----3-----3------0-3-5---0-3-5---3-----3-----

E|-------------------------1-------1--------------------

G|------------------2-----2-

D|-----2-----2---2-5---2-5--

A|--2-5---2-5---3-----3-----

E|-3-----3------------------

Verse 2:

G|-----2-----2-----2----------------------------2-----2-

D|--2-5---2-5---2-5--------------------------2-5---2-5--

A|-3-----3-----3-----3-5-6-7-8-5----8-5-----3-----3-----

E|------------------------------8-5----8-5--------------

G|------------------------------

D|-----2--------------7-------7-

A|--2-5-----------7-10----7-10--

E|-3-----3-5-6-7-8-------8------

Middle 8:

G|-----------------------------------------------------------------

D|---------------7---------------7----------------7----------------

A|-8-5-------7-10---8-5-------7-10---8-5-------7-10----------0-1-2-

E|----8-5---8----------8-5---8----------8-5---8-----3-3-3-3-3------

Verse 3:

G|-----2-----2-----2----------------------------2-----2-

D|--2-5---2-5---2-5--------------------------2-5---2-5--

A|-3-----3-----3-----3-5-6-7-8-5----8-5-----3-----3-----

E|------------------------------8-5----8-5--------------

G|------------------2-----2-

D|-----2-----2---2-5---2-5--

A|--2-5---2-5---3-----3-----

E|-3-----3------------------

Instrumental: (Repeat Verse 3 x2)

Then Play This:

G|-----2-----2-----2-----------------------------2-----2-

D|--2-5---2-5---2-5---------------------------2-5---2-5--

A|-3-----3-----3-----3-1-0---0-3-5---0-3-5---3-----3-----

E|------------------------3-1-------1--------------------

G|-----------------------------

D|-----2-----2-------7-------7-

A|--2-5---2-5----7-10----7-10--

E|-3-----3------8-------8------

Repeat Middle 8:

Repeat Verse 1:

Repeat Instrumental Several Times Using Own Walking Bass Variations:

Outro:

G|-----2-----2-----2----------------------------2-----2-

D|--2-5---2-5---2-5--------------------------2-5---2-5--

A|-3-----3-----3-----3-5-6-7-8-5----8-5-----3-----3-----

E|------------------------------8-5----8-5--------------

G|-----------------------------------------

D|-----2-----2-----------------------------

A|--2-5---2-5---3-------1-2-3---3--------3-

E|-3-----3-------1-2-3-4-------------------



simplify

key

chords

key

original:   current:  

transpose  


0

expert

 

Learn the NEW Way to Sing With Freedom, Confidence, and Control

click to watch now