Learn Singing, Guitar, Piano, Bass, Percussion at www.NEATcourses.com
Get Chords at www.NEATchords.com

axwell and ingrosso
more than you know
Chords and lyrics

difficulty: expert



[Chorus]

e|-0-2-3333-2-0----------------------------|

A|-------------0-333-2-333-2---------------|

D|--------------------2-----2--------------|

G|-----------------------------------------|

B|-----------------------------------------|

E|-----------------------------------------|  (x2)

[Verse 1]

e|-------------------------------------------------------|

A|--0-33---0-3----0-333333--3p-3-----0-33--0-3-03--03----|

D|-2-2----2-2----2-2------------2---2-2---2-2----2---2---|

G|-------------------------------------------------------|

B|-------------------------------------------------------|

E|-------------------------------------------------------|  (x2)

[Chorus]

e|-0-2-3333-2-0----------------------------|

A|-------------0-333-2-333-2---------------|

D|--------------------2-----2--------------|

G|-----------------------------------------|

B|-----------------------------------------|

E|-----------------------------------------|  (x2)

[Post-Chorus]

e|-0-2-3333-2-0----------------------------|

A|-------------0-333-2-333-2---------------|

D|--------------------2-----2--------------|

G|-----------------------------------------|

B|-----------------------------------------|

E|-----------------------------------------|  (x2)

[Verse 2]

e|-------------------------------------------------------|

A|--0-33---0-3----0-333333--3p-3-----0-33--0-3-03--03----|

D|-2-2----2-2----2-2------------2---2-2---2-2----2---2---|

G|-------------------------------------------------------|

B|-------------------------------------------------------|

E|-------------------------------------------------------|  (x2)

[Pre-Chorus]

e|-----------------------------------------|

A|-3333-22-333-2-3---3333-2----------------|

D|----------------2------------------------|

G|-----------------------------------------|

B|-----------------------------------------|

E|-----------------------------------------| (x2)

[Chorus]

e|-0-2-3333-2-0----------------------------|

A|-------------0-333-2-333-2---------------|

D|--------------------2-----2--------------|

G|-----------------------------------------|

B|-----------------------------------------|

E|-----------------------------------------|  (x2)

[Chorus]

e|-0-2-3333-2-0----------------------------|

A|-------------0-333-2-333-2---------------|

D|--------------------2-----2--------------|

G|-----------------------------------------|

B|-----------------------------------------|

E|-----------------------------------------|  (x2)

[Post-Chorus]

e|-0-2-3333-2-0----------------------------|

A|-------------0-333-2-333-2---------------|

D|--------------------2-----2--------------|

G|-----------------------------------------|

B|-----------------------------------------|

E|-----------------------------------------|  (x2)

[Chorus]

e|-0-2-3333-2-0----------------------------|

A|-------------0-333-2-333-2---------------|

D|--------------------2-----2--------------|

G|-----------------------------------------|

B|-----------------------------------------|



simplify

key

chords

key

original:   current:  

transpose  


0

expert