Learn Singing, Guitar, Piano, Bass, Percussion at www.NEATcourses.com
Get Chords at www.NEATchords.com

azealia banks
gimme a chance bass
Chords and lyrics

difficulty: expert



                Intro:

G|---------------------------|

D|---------------------------|

A|33-3-03-5------------------|

E|----------3--3--3--3--3----|

Verse:

G|------------------------------------------------------|

D|------------------------------------------------------|

A|3-03-5-----------3----------3--3-7p5------3--5p3------|

E|-----------3-3-3--5\-----3h5--5---------3-------3h5\--|

G|--------------------------------------------------------------|

D|--------------------------------------------------------------|

A|---3-03-5/17\-----------3----------3---3-7p5-------3--5p3-----|

E|3h5---------------3-3-3--5\-----3h5---5----------3-------3h5\-|

G|----------------------------------------------------------|

D|----------------------------------------------------------|

A|---3-03-5-----------3----------3---3-7p5-------3--5p3-----| x2

E|3h5-----------3-3-3--5\-----3h5---5----------3-------3h5\-|

Chorus:

G|--------------------------------------------------------------------|

D|--------------------------------------------------------------------|

A|033-3-03-5------033-3-3-35---------033-3-03-5------033-3-03-5-------|

E|-----------3----------------3-3---------------3---------------3-3-3-|

G|--------------------|

D|---------(0-0)------|

A|--------------------|

E|1111---(1)----0-0-1-|

B|--------6\3-3-------|

G|----------------------------| |---------------------------------|

D|----------------------------| |---------------------------------|

A|33-3-03-5------033-3-03-5---| |--033-3-03-5------033-3-03-5-----| x2

E|----------3---------------3-| |--------------3--------------3-3-|

Verse x1

Chorus x1

Interlude:

G|------------------------------------------------------|

D|------------------------------------------------------|

A|3-03-5-----------3----------3--3-7p5------3--5p3------|

E|-----------3-3-3--5\-----3h5--5---------3-------3h5\--|

G|--------------------------------------------------------------|

D|--------------------------------------------------------------|

A|---3-03-5/17\-----------3----------3---3-7p5-------3--5p3-----|

E|3h5---------------3-3-3--5\-----3h5---5----------3-------3h5\-|

Latin:

G|---------------------------------|

D|(0)------------------------------|

A|------------------0-----0-0-03-4-| a lot of times

E|----1--3-3--1-3-4----0-----------|

B|-3-------------------------------|



simplify

key

chords

key

original:   current:  

transpose  


0

expert

 

New Free App: Soji lets you instantly record, enhance & share your songs. Download Now ยป