Learn Singing, Guitar, Piano, Bass, Percussion at www.NEATcourses.com
Get Chords at www.NEATchords.com

baby animals
email bass
Chords and lyrics

difficulty: expert



                Tuning: Standard 5 String

Timing: 4/4

INTRO:

1 + 2 + 3 + 4 +  1 + 2 + 3 + 4 +  1 + 2 + 3 + 4 +  1 + 2 + 3 + 4 +

G|----------------|----------------|----------------|----------------|

D|----------------|----------------|----------------|----------------|

A|----------------|----------------|----------------|----------------|

E|------/14\-4-4-2|4---4-2-4----4-2|4---4-2-4----4-2|4---4-2-4----4-2|

B|----------------|----------------|----------------|----------------|

1 + 2 + 3 + 4 +  1 + 2 + 3 + 4 +  1 + 2 + 3 + 4 +  1 + 2 + 3 + 4 +

G|----------------|----------------|----------------|----------------|

D|----------------|----------------|----------------|----------------|

A|----------------|----------------|----------------|----------------|

E|4-----/14\-4-4-2|4---4-2-4----4-2|4---4-2-4----4-2|4---4-2-4----4-2|

B|----------------|----------------|----------------|----------------|

1 + 2 + 3 + 4 +  1 + 2 + 3 + 4 +  1 + 2 + 3 + 4 +  1 + 2 + 3 + 4 +

G|----------------|----------------|----------------|----------------|

D|----------------|----------------|----------------|----------------|

A|----------------|----------------|----------------|----------------|

E|4---4-2-4r------|----------------|----------------|----------------|

B|----------------|----------------|----------------|----------------|

1 + 2 + 3 + 4 +  1 + 2 + 3 + 4 +  1 + 2 + 3 + 4 +  1 + 2 + 3 + 4 +

G|----------------|----------------|----------------|----------------|

D|----------------|----------------|----------------|----------------|

A|----------------|----------------|----------------|----------------|

E|----------------|----------------|----------------|----------------|

B|----------------|----------------|----------------|----------------|

CHORUS 1:

1 + 2 + 3 + 4 +  1 + 2 + 3 + 4 +  1 + 2 + 3 + 4 +  1 + 2 + 3 + 4 +

G|----------------|----------------|----------------|----------------|

D|----------------|----------------|----------------|----------------|

A|----------------|----------------|----------------|----8-8-9-9-1011| x2

E|----4---5-5-6-7r|--7-------------|----6---7-7-8-9r|--9-------------|

B|5---------------|----4-4-5-5-6-6-|7---------------|----------------|

1 + 2 + 3 + 4 +  1 + 2 + 3 + 4 +

G|----------------|----------------|

D|----------------|----------------|

A|----------------|----------------|

E|----------------|----------------|

B|4---------------|----------------|

VERSE 2:

1 + 2 + 3 + 4 +  1 + 2 + 3 + 4 +  1 + 2 + 3 + 4 +  1 + 2 + 3 + 4 +

G|----------------|----------------|----------------|----------------|

D|----------------|----------------|----------------|----------------|

A|----------------|----------------|----------------|----------------|

E|----------------|----------------|----------------|----------------|

B|----------------|----------------|----------------|----------------|

1 + 2 + 3 + 4 +  1 + 2 + 3 + 4 +  1 + 2 + 3 + 4 +  1 + 2 + 3 + 4 +

G|----------------|----------------|----------------|----------------|

D|----------------|----------------|----------------|----------------|

A|----------------|----------------|----------------|----------------|

E|----------------|----------------|----------------|----------------|

B|----------------|----------------|----------------|----------------|

CHORUS 2:

1 + 2 + 3 + 4 +  1 + 2 + 3 + 4 +  1 + 2 + 3 + 4 +  1 + 2 + 3 + 4 +

G|----------------|----------------|----------------|----------------|

D|----------------|----------------|----------------|----------------|

A|----------------|----------------|----------------|----8-8-9-9-1011| x4

E|----4---5-5-6-7r|--7-------------|----6---7-7-8-9r|--9-------------|

B|5---------------|----4-4-5-5-6-6-|7---------------|----------------|

1 + 2 + 3 + 4 +  1 + 2 + 3 + 4 +  1 + 2 + 3 + 4 +  1 + 2 + 3 + 4 +

G|----------------|----------------|----------------|----------------|

D|----------------|----------------|----------------|----------------|

A|----------------|----------------|9---------------|----------------|

E|----------------|----------------|----------------|----------------|

B|4---------------|4r--4-4---------|----------------|7r--7-7--------/|

1 + 2 + 3 + 4 +  1 + 2 + 3 + 4 +

G|----------------|----------------|

D|----------------|----------------|

A|----------------|----------------|

E|----------------|----------------|

B|7---------------|----------------|

SOLO:

1 + 2 + 3 + 4 +  1 + 2 + 3 + 4 +  1 + 2 + 3 + 4 +  1 + 2 + 3 + 4 +

G|----------------|----------------|----------------|----------------|

D|----------------|----------------|----------------|----------------|

A|----------------|----------------|----------------|----------------|

E|----------------|----------------|----------------|----------------|

B|----------------|----------------|----------------|----------------|

1 + 2 + 3 + 4 +  1 + 2 + 3 + 4 +  1 + 2 + 3 + 4 +  1 + 2 + 3 + 4 +

G|----------------|----------------|----------------|----------------|

D|----------------|----------------|----------------|----------------|

A|----------------|----------------|----------------|----------------|

E|----------------|----------------|----------------|----------------|

B|----------------|----------------|----------------|----------------|

1 + 2 + 3 + 4 +  1 + 2 + 3 + 4 +  1 + 2 + 3 + 4 +  1 + 2 + 3 + 4 +

G|----------------|----------------|----------------|----------------|

D|----------------|----------------|----------------|----------------|

A|----------------|----------------|----------------|----------------|

E|----------------|----------------|----------------|----------------|

B|----------------|----------------|----------------|----------------|

1 + 2 + 3 + 4 +  1 + 2 + 3 + 4 +  1 + 2 + 3 + 4 +  1 + 2 + 3 + 4 +

G|----------------|----------------|----------------|----------------|

D|----------------|----------------|----------------|----------------|

A|----------------|----------------|----------------|----------------|

E|----------------|----------------|----------------|----------------|

B|----------------|----------------|----------------|----------------|



simplify

key

chords

key

original:   current:  

transpose  


0

expert

 

Learn the NEW Way to Sing With Freedom, Confidence, and Control

click to watch now