Learn Singing, Guitar, Piano, Bass, Percussion at www.NEATcourses.com
Get Chords at www.NEATchords.com

bachman turner overdrive
flat broke love
Chords and lyrics

difficulty: expert



-----------------------------------------------------------------------------

-----------------------------------------------------------------------------

Tuning: Standard, Distortion

          G5  Bb5 C5  C5

e|--------------------------------------------------------------------------|

B|--------------------------------------------------------------------------|

G|-------------5---5---5----------------------------------------------------|

D|---------5---3---5---5----------------------------------------------------|

A|-9/------5---1---3---3----------------------------------------------------|

E|-9/------3----------------------------------------------------------------|

"Pardon my life, Pardon my song........"



simplify

key

chords

key

original:   current:  

transpose  


G5

Bb5

C5

None

expert