Learn Singing, Guitar, Piano, Bass, Percussion at www.NEATcourses.com
Get Chords at www.NEATchords.com

bachman turner overdrive
second hand
Chords and lyrics

difficulty: expert



                (riff 1)

e|--------------------------------------------|

b|--------------------------------------------|

g|-----------------------------2--------------|

d|------------------2--2-4-2-4--4-2-0---------|

a|-------2-0-2-4-2-4--4--------------4-4-0----|

e|-2-0-2----------------------------------4-4-|

(riff 2)

e|-----------------------------------------|

b|-----------------------------------------|

g|----------------2-----2-2-6-4-2----------|

d|---------------2-4-2-4-4-------0---------|

a|-------2-0-2-4------------------4-4-0----|

e|-2-0-2-------------------------------4-4-|

[Intro]

        

       E   F#m   B   A   E   F#m   D

[Verse 1]

E  F#m  B            A     E   F#m   D

No rea  son to get excited

      E    F#m  B            A           E   F#m   D

But I feel a    change comin in the wind

E  F#m   B              A        E   F#m   D

Everythin's filled with confusion

         E     F#m B          A 

So let's start the world over again

[Chorus]

F#m  C#           N.C 

And get it second hand, slightly used, soiled

N.C

Get it second hand, carelessly abused, spoiled

[Verse 2]

E F#m B                 A                 E   F#m  D

I see you're looking to find new horizons

    E     F#m B         A                E   F#m   D

But there are footsteps everywhere you go

E   F#m   B           A                E   F#m   D

And somebody else has heard the thunder

E   F#m  B         A               E   F#m   D

The sun  shine has wilted and froze

[chorus]

F#m   C#            N.C

I'll get it second hand, I'm dazed and confused

N.C

Turn back the second hand, I pay all my dues

F#m   C#                N.C

        I got rid of my dues and I'm all fixed up

N.C

Watch me talk about it, wooo

F#m   C#             N.C

Second hand, yeah used, second hand

N.C

I got it second hand, all used up

F#m   C#           

        Second hand

F#m   C#           



simplify

key

chords

key

original:   current:  

transpose  


E

F#m

B

A

D

C#

None

expert