Learn Singing, Guitar, Piano, Bass, Percussion at www.NEATcourses.com
Get Chords at www.NEATchords.com

bacilos
cuestion de madera
Chords and lyrics

difficulty: intermediate



                INTRO

e|-------------------------------------------------------------|

B|-------------------------------------------------------------|

G|-------------------------------------------------------------|

D|----2-----2-----2h3-2----2h3-2----3-------3----- 2------0----|

A|--3--3--2---2--0-------0--------3---3-3-3---3-3-------2------|

E|---------------------------------------------------3---------|

C         Em      Am                F       C

--------------------------------------------------------|

---------1p0-----1p0--------------------------------1p0-|

--------0-------0----------------------------------0----|

-------2-------2-------2h3-2---2h3-2-------2------2-----|

---0/3-------2-------0---------------3---3----0/3-------|

-----------------------------1---------1----------------|

Em

-------------------------------------------------------|

-------1p0---------------------------------------------|

------0------------------------------------------------|

-----2-------------------------------------------------|

---2---------------------------------------------------|

-------------------------------------------------------|

                                                (bis)

C                   Em           Am

Despúes de un buen rato de esperar

             F

que desea usted señor

                C     Em

que voy a querer? pense.

C         Em           Am

Una mesa cerca del balcón,

                 F

sólo se puede pasar,

          C          Em

si va usted a comer.

C          Em            Am

Pobre camarero en realidad

           F                  C           Em

su reflejo veo en mi piel, y pierdo valor

C            Em               Am

Es la vieja historia de este mundo colonial

          F              C            Em

siga usted patrón, que le sirvo hoy?

   Am             F

*Y asi van tantos años

    Dm          G

y asi tanta mediocridad

    Am             F

haciendo nuestras vidas

      C

al motero confundido

           G

de una Europa que aqui nunca pudo ser.

 Em                      Am

Es cuestión de madera ooooh

      F

la fibra del corazón

          C                       G

de las ganas en los huesos por seguir

 Em                      Am

es cuestión de madera ooooh

     C                            G

siga usted patrón, que le sirvo hoy?

Intro

C            Em             Am

No puedo ni quiero convencer

                      F

al camarero de que diablos soy

       C            Em

me paresco tanto a el

C             Em                  Am

nunca va a entender nunca va a comprender

                       F          C            Em

que su sangre es del color, de un nuevo amanecer

*Y asi......

Intro

*Y asi......



simplify

key

chords

key

original:   current:  

transpose  


C

Em

Am

F

Dm

G

1

2

3

4

5

6

0

intermediate