Learn Singing, Guitar, Piano, Bass, Percussion at www.NEATcourses.com
Get Chords at www.NEATchords.com

bacilos
solo un segundo
Chords and lyrics

difficulty: intermediate



                 D     

e|-----------------|

B|------3----------|

G|-------2-0-------|

D|-0-0-0-----0-4-0-|

A|-----------------|

E|-----------------| y así con los bajos y con los acordes de las notas del primer verso.

D

La recuerdo sin azúcar

y sin crema y sin excusas.

Bm

La recuerdo en la mañana

despertándose en mi cama.

F#m

La recuerdo en la pereza

de una rutina que empieza.

G     

La recuerdo preocupada    G

por lo que hoy no vale nada.

D

La recuerdo en sus dilemas

entre cuentas y poemas,

Bm

en el ruido de la calle

perdida siempre en los detalles.

F#m

La recuerdo, sin verguenza.

G

La recuerdo en un segundo

en que llegó a lo más profundo.

PRECORO:Punteo Segunda guitarra.

D  Bm  F#m  En G no

e|-----2--2--2-------2--2--2--------2--2--2-----|

B|----3-3--3--3-----3-3--3--3------2-2--2--2----|

G|---2---2--2--2---4---4--4--4----2---2--2--2---|

D|--0-------------------------------------------|

A|----------------2-----------------------------|

E|-------------------------------2--------------|

D    Bm 

Y dejó en mi corazón

F#m

la marca de su amor,

G

en solo un segundo.Riff1 (E|-3-5-5/7-5-3-2-0-)

D   Bm 

Cómo fuimos a parar

     F#m 

del cielo a este lugar Riff2 (E|-5-5h3-3-2-2-)

               G 

en solo un segundo en un segundo.

CORO

En el coro hay una segunda guitarra que puntea así

D  Bm  F#m  G

e|------------------------------------------------------2---|

B|----3--3--3--------3--3--3--------2--2--2---------3----3--|

G|---2-2--2--2------4-4--4--4------2-2--2--2-------4-4----4-|

D|--0---0--0--0----4---4--4--4----4---4--4--4-----5---5-----|

A|-0--------------2-----------------------------------------|

E|-------------------------------2---------------3----------|

D   Bm 

Cómo fuimos A parar Riff3 (E|-7-7-)

                   F#m  

del cielo a este lugar

        G 

en solo un segundo.

D Bm F#m G (Saxofon)

En los Break puede una guitarra acompañar al saxofon tocando esto:

e|----------------------------------------------------|

B|-2-3--2-2-3---2-3--2-2-3---2-3--2-2-3---------------|

G|----------------------------------------6-7--6-6-7--|

D

No recuerdo bien su cara

ni su voz ni su mirada.

Bm

No recuerdo sus historias

ni sus penas ni sus glorias

F#m

Aunque a veces me la encuentro

caminando entre mis sueños

G

Me recuerda un sentimiento

del que ya no somos dueños.

PRECORO.

D                 Bm 

Y dejó en mi corazón

                 F#m 

la marca de su amor,

              G 

en solo un segundo.Riff3 (E|-5/7-7-5-3-2-)

D                Bm 

Cómo fuimos a parar

                  F#m 

del cielo a este lugar

              G 

en solo un segundo en un segundo. Riff (E|-3-5-7-5-7-7/9-)

CORO

D                Bm 

Cómo fuimos a parar

                    F#m 

del cielo a este lugar

              G 

en solo un segundo.(Bis)

D Bm F#m G (Saxofon)

    D       Bm 

... Cómo fuimos a parar

F#m    G 

en solo un segundo.



simplify

key

chords

key

original:   current:  

transpose  


D

Bm

F#m

G

1

3

4

6

2

intermediate