Learn Singing, Guitar, Piano, Bass, Percussion at www.NEATcourses.com
Get Chords at www.NEATchords.com

bad bad hats
it hurts
Chords and lyrics

difficulty: expert



                Tuning: Standard

   E

e|-0-0-0---0---0---0-------0---0---0-0-0---0---0---4------4---4-|

B|-0-0-0---0---0---2-------2---2---0-0-0---0---0---0------0---0-|

G|-1-1-1---1---1---1-------1---1---1-1-1---1---1---1------1---1-|

D|-2-2-2---2---2---2-------2---2---2-2-2---2---2---2------2---2-|

A|-2-2-2---2---2---2-------2---2---2-2-2---2---2---2------2---2-|

E|-0-0-0---0---0---0-------0---0---0-0-0---0---0---0------0---0-|

   A

e|-0-0-0---0---0---0-------0---0---0-0-0---0---0---4------4---4-|

B|-2-2-2---2---2---2-------2---2---2-2-2---2---2---2------2---2-|

G|-2-2-2---2---2---2-------2---2---2-2-2---2---2---2------2---2-|

D|-2-2-2---2---2---2-------2---2---2-2-2---2---2---2------2---2-|

A|-0-0-0---0---0---0-------0---0---0-0-0---0---0---0------0---0-|

E|--------------------------------------------------------------|

   F#                                                             A [Let ring]

e|-0-0-0---0---0---0-------0---0---0-0-0---0---0---0------0---0---0-0-0-|

B|-0-0-0---0---0---0-------0---0---0-0-0---0---0---0------0---0---2-2-2-|

G|-3-3-3---3---3---3-------3---3---3-3-3---3---3---3------3---3---2-2-2-|

D|-4-4-4---4---4---4-------4---4---4-4-4---4---4---4------4---4---2-2-2-|

A|-4-4-4---4---4---4-------4---4---4-4-4---4---4---4------4---4---0-0-0-|

E|----------------------------------------------------------------------|

E, E

E                                         E

So you want to know just how I feel about you

E                                         E

I could live without you, just don't want to

A                               E

I cross my heart and hope to die

A                                          E

But my heart says you're dying to cross my mind

F#                  A

Oh, the night is so young

   E           E

It hurts

E                                E  

Pluck a heart-string, duck for cover

E                                 E

Hear the phone ring, start to stutter

A                              E

He wants to know why I sit and sigh so

A                                          E

I yelled your name like a secret at the window

F#                  A

Oh, the night is so young

   E           E

It hurts

Bridge:

E   E   A   A   

F#  A   E   A

E   A   E   A

E                 A

Grow up, grow up, my baby

E                 A

Grow up, grow up, sweetheart

E                 A

Grow up, grow up, my baby

E                 A        

Grow up, grow up, sweetheart

F#      A



simplify

key

chords

key

original:   current:  

transpose  


E

A

F#

None

expert

 

Learn the NEW Way to Sing With Freedom, Confidence, and Control

click to watch now