Learn Singing, Guitar, Piano, Bass, Percussion at www.NEATcourses.com
Get Chords at www.NEATchords.com

band of horses
great salt lake
Chords and lyrics

difficulty: beginner



                Capo 1 (all frets are relative to capo)

Intro/Verse:

------------|

--------3-3-|

-9/7/4--0-0-|

-7/5/2--X-2-|

-7/5/2--2-3-|

--------3---|

End verse, chords picked not strummed ("falling apart.."):

-----|-----|

-3---|-3-3-|

-0---|-2-0-|

-2---|-2-2-|

-3-2-|-0-3-|

-----|-----|

Chorus ("the great salt lake..." then enter)

----2----------|

-3--3--3-----1-|

-0--2--0-------|

-X-----X--2--2-|

-2-----2--2--3-|

-3-----3-------|

 G  D  G Em  C   [x2]

End verse, Verse, End Verse, Chorus

Chorus Jam/Outro:

----2-----------2----|

-3--3-----1--3--3--3-|

-0--2--------0--2--0-|

-X-----2--2--X-----X-|

-2-----2--3--2-----2-|

-3-----------3-----3-|

G  D  Em C  G  D  G



simplify

key

chords

key

original:   current:  

transpose  


G

D

Em

C

1

4

5

6

7

beginner