Learn Singing, Guitar, Piano, Bass, Percussion at www.NEATcourses.com
Get Chords at www.NEATchords.com

band of horses
i go to the barn because i like the
Chords and lyrics

difficulty: intermediate



                Capo 2

   C            Em7          F          G

e|-----------------------------------1-------------|

B|-1---------1--0---------1--1----------0-------0--|

G|---0-----0------0-----0------2---2------0---0----|

D|-----0h2----------0h2----------3----------0------|

A|-3------------2----------------------------------|

E|---------------------------1----------3----------|

e|-----0-----0-----1----0-----0-----|

B|-----1-----1-----1----1-----1-----|

G|-----0-----0-----2----2-----0-----|

D|-----2-----0-----3-or-3-----0-----|

A|-----3-----2-----3----3-----2-----|

E|-----0-----0-----1----x-----3-----|

       C    Em7      F        G

     C           Em7           F          G          

   C     Em7    F    G

Well I'd like to think I'm the mess that you'd wear with priiiiiiiiiiiiiiide

C               Em7          F                G      

C      Em7     F    G

Like some empty dress on the bed you've layed out for toniiiiiiiiiiiiiight

F                       G

Maybe I'll tell you sometime

C     Em7      F      G

tiiiiiiiiiiiiiiiiiiime

C     Em7      F      G

sometiiiiiiiiiiiiiiime

C

and you

Em7

were right

C     Em7      F      G

riiiiiiiiiiiiiiiiiight

         C     Em7      F      G

You were riiiiiiiiiiiiiiiiiight

Strum Chords - Listen to song for strumming pattern

C

Outside

        Em7

     F

in a worn out

     G

suit and tie

C

I'll wait

           Em7

for you to come down

             F

where you'll find me

      G

where we'll shine

Repeat

Finish on C with "Outside"



simplify

key

chords

key

original:   current:  

transpose  


C

Em7

F

G

1

3

4

5

0

intermediate