Learn Singing, Guitar, Piano, Bass, Percussion at www.NEATcourses.com
Get Chords at www.NEATchords.com

band of skulls
cold fame
Chords and lyrics

difficulty: expert



                Mostly correct, always could be better

really fun song to play

Tuning: EADGBe

      h - hammer on 

      p - pull off 

Intro and Verse

Fmaj7  Fmaj9 Cmaj

(18sec)(22)(24)  (26)

e--0----1--3--3p1-0-----0---0--0--|

B--1----1--1--1---1-----1---1--1--|

G--2----2--2--2---0-----0---0--0--|

D--3----3--3--3---2-----2---2--2--|

A--0----0--0--0---3-----0h3-3--3p0|

E--0----0--0--0---0-----0---0--0--|

F(with open E)

What's the point of fame if it's been abused?

Fmaj7                     Fmaj9        Fmaj7

What's a kid like me even got to lose?

Cmaj

Here I am on your bed again,

Cmaj

It's too big for the room its in.

Listen to the song and get the strumming pattern,

the pull off's and hammer downs are just an extra little touch i guess.

Yeah.......I know my place..........but it don't know me

   Gmaj                  Fmaj7                       Cmaj

e--3---------------------0----------------------------0-----------|

B--3---------------------1----------------------------1-----------|

G--0---------------------2----------------------------0-----------|

D--0---------------------3----------------------------2-----------|

A--2---------------------0----------------------------3-----------|

E--3---------------------0----------------------------0-----------|

Cold fame   in my brain but it's ok because i know its the best for me

    Cmaj                             Fmaj7

e---0-----------------------0--------------------------------------|

B---1-----------------------1--------------------------------------|

G---0-----------------------2--------------------------------------|

D---2-----------------------3--------------------------------------|

A---3-----------------------0--------------------------------------|

E---0-----------------------0--------------------------------------|

Lyrics

What's the point of fame if it's been abused?

What's a kid like me even got to lose?

Here I am on your bed again

It's too big for the room it's in

Watch your face and laugh just a little bit

Everybody knows that you're good at it

But nothin' hurts like an answer phone

Drinkin' some, wakin' up alone

Maybe if I try just a little more

I can take myself from this dirty floor

And walk through buildings of elegance

Just like you are intelligent

But still I fall from grace with this microphone

How'd you find yourself if you never roam?

Certainly, I'm indebted, baby Certainly, certainly, yeah

I know my place but it don't know me

I know my place but it don't know me

No one wants to hear that you're breakin' up

It wasn't long ago we said, "Start me up"

Now all your dreamin' will have to wait

What you deserve, you'll anticipate

Play your forty five with this late at night

Open all the windows, turn out the light

Mysterious creatures will fill the room

A midnight show just put on for you

But still I fall from grace with this microphone

How'd you find yourself if you never roam?

Certainly, I'm indebted, baby

Certainly, certainly, yeah

I know my place but it don't know me

I know my place but it don't know me

Cold fame in my brain, but It's okay 'cause I know it's the best for me

Cold fame in my brain, but It's okay 'cause I know it's the best for me

Cold fame in my brain, but It's okay 'cause I know it's the best for me

Cold fame in my brain, but It's okay 'cause I know it's the best for me

Cold fame in my brain, but It's okay 'cause I know it's the best for me

Cold fame in my brain, but It's okay 'cause I know it's the best for me

Cold fame in my brain, but It's okay 'cause I know it's the best for me

Cold fame in my brain, but It's okay 'cause I know it's the best for me

Cold fame in my brain, but It's okay 'cause I know it's the best for me

Cold fame in my brain, but It's okay 'cause I know it's the best for me



simplify

key

chords

key

original:   current:  

transpose  


0

expert