Learn Singing, Guitar, Piano, Bass, Percussion at www.NEATcourses.com
Get Chords at www.NEATchords.com

baroness
desperation burns
Chords and lyrics

difficulty: expert



                [Intro] x2

         PM-|     PM-|  PM  PM-|      PM-|

d|---------------------------------------------------------------------------|

A|--8--8------7--8-----8---8-----7--8------8---------------------------------|

F|--9--9------8--9-----9---9-----8--9------9------------0--------------------|

C|--9--9------8--9-----9---9-----8--9------9------5h7/9----------------------|

G|--7--7------6--7-----7---7-----6--7------7--5h7---------7------------------|

D|--0-----0-0------0-0---0---0-0-------0-0-----------------------------------|

   PM-|   PM-|     PM-|  PM   PM-|

d|---------------------------------------------------------------------------|

A|------8------7--8-----8---8------7--8-----3----5----7----8-----10----------|

F|------9------8--9-----9---9------8--9--------------------------------------|

C|------9------8--9-----9---9------8--9--/4---/5---/7---/9---/10-------------|

G|------7------6--7-----7---7------6--7--------------------------------------|

D|--0-0----0-0------0-0---0----0-0-------------------------------------------|

[Transition]

                                                   PM

d|---------------------------------------------------------------------------|

A|---------------------------------------------------------------------------|

F|--16---14---12--14--12--11-9--16---14---12--9------------------------------|

C|--------------------------------------------9--9--9-9----------------------|

G|--14---12---10--12--10--9--7--14---12---10--7--9--9-9---5-5-5-5-5-5-5-5----|

D|-----------------------------------------------7--7-7----------------------|

[Verse 1]

PM-----|  PM-|  PM-----|       PM-----|  PM-|  PM-----|

d|---------------------------------------------------------------------------|

A|--8--8----------8-----8---------4-4-4----------4-----4---------------------|

F|--9--9----------9-----9---------4-4-4----------4-----4---------------------|

C|--9--9----------9-----9---------4-4-4----------4-----4---------------------|

G|--7--7--7-7-7-7-7-7-7-7-7-7-7-7-2-2-2--2-2-2-2-2-2-2-2-2-2-2-2-------------|

D|--------0-0-0-0---0-0---0-0-0-0--------0-0-0-0---0-0---0-0-0-0-------------|

PM-----|  PM-|  PM-----|       PM-----|  PM-|  PM-----|

d|---------------------------------------------------------------------------|

A|---------------------------------2-2-2----------2-----2--------------------|

F|--0-0-0----------0-----0---------2-2-2----------2-----2--------------------|

C|--0-0-0----------0-----0---------2-2-2----------2-----2--------------------|

G|--2-2-2--2-2-2-2-2-2-2-2-2-2-2-2-0-0-0--0-0-0-0-0-0-0-0-0-0-0-0------------|

D|--3-3-3--3-3-3-3-3-3-3-3-3-3-3-3-------------------------------------------|

[Verse 2] x2

d|---------------------------------------------------------------------------|

A|---------------------------------------------------------------------------|

F|--9-9-9-9-9-9-9-9-9-9-9-9-9-9-9-9-8-8-8-8-8-8-8-8-8-8-8-8-11-11-11-11------|

C|---------------------------------------------------------------------------|

G|--7-7-7-7-7-7-7-7-7-7-7-7-7-7-7-7-6-6-6-6-6-6-6-6-6-6-6-6--9--9--9--9------|

D|---------------------------------------------------------------------------|

d|---------------------------------------------------------------------------------------------------|

A|---------------------------------------------------------------------------------------------------|

F|--12-12-12-12-12-12-12-12-12-12-12-12-12-12-12-12-14-14-14-14-14-14-14-14-14-14-14-14-14-14-14-14--|

C|---------------------------------------------------------------------------------------------------|

G|--10-10-10-10-10-10-10-10-10-10-10-10-10-10-10-10-12-12-12-12-12-12-12-12-12-12-12-12-12-12-12-12--|

D|---------------------------------------------------------------------------------------------------|

[Transition]

   PM    PM    PM

d|---------------------------------------------------------------------------|

A|---------------------------------------------------------------------------|

F|---------------------------------------------------------------------------|

C|---------------------------------------------------------------------------|

G|----7-5---3-5---7----------------------------------------------------------|

D|--0-5-3-0-1-3-0-5----------------------------------------------------------|

[Chorus] x2

d|---------------------------------------------------------------------------|

A|---------------------------------------------------------------------------|

F|---------------------------------------------------------------------------|

C|---------------------------------------------------------------------------|

G|--14--14--14--14--17--12--12--10-10-9--9--7--12--12------------------------|

D|--12--12--12--12--15--10--10--8--8--7--7--7--10--10------------------------|

d|---------------------------------------------------------------------------|

A|---------------------------------------------------------------------------|

F|---------------------------------------------------------------------------|

C|---------------------------------------------------------------------------|

G|--14--14--14--12--17--17--12--12--17--17--17--12--12-----------------------|

D|--12--12--12--10--15--15--10--10--15--15--15--10--10-----------------------|

[Post-Chorus] x2

                PM  PM  PM     PM-|  PM      PM  PM   PM

d|---------------------------------------------------------------------------|

A|---------------------------------------------------------------------------|

F|--16---14-/-12---11--8---9--9-----9---11/-12---9---12---11-11--------------|

C|---------------------------------------------------------------------------|

G|--14---12-/-10---9---6---7--7-----7---9-/-10---7---10---9--9---------------|

D|-----0---------0---0---0------0-0---0--------0---0----0--------------------|

[Transition]

   PM    PM    PM

d|---------------------------------------------------------------------------|

A|---------------------------------------------------------------------------|

F|---------------------------------------------------------------------------|

C|---------------------------------------------------------------------------|

G|----7-5---3-5---5-3--------------------------------------------------------|

D|--0-5-3-0-1-3-0-3-1--------------------------------------------------------|

[Verse 1]

PM-----|  PM-|  PM-----|       PM-----|  PM-|  PM-----|

d|---------------------------------------------------------------------------|

A|--8--8----------8-----8---------4-4-4----------4-----4---------------------|

F|--9--9----------9-----9---------4-4-4----------4-----4---------------------|

C|--9--9----------9-----9---------4-4-4----------4-----4---------------------|

G|--7--7--7-7-7-7-7-7-7-7-7-7-7-7-2-2-2--2-2-2-2-2-2-2-2-2-2-2-2-------------|

D|--------0-0-0-0---0-0---0-0-0-0--------0-0-0-0---0-0---0-0-0-0-------------|

PM-----|  PM-|  PM-----|       PM-----|  PM-|  PM-----|

d|---------------------------------------------------------------------------|

A|---------------------------------2-2-2----------2-----2--------------------|

F|--0-0-0----------0-----0---------2-2-2----------2-----2--------------------|

C|--0-0-0----------0-----0---------2-2-2----------2-----2--------------------|

G|--2-2-2--2-2-2-2-2-2-2-2-2-2-2-2-0-0-0--0-0-0-0-0-0-0-0-0-0-0-0------------|

D|--3-3-3--3-3-3-3-3-3-3-3-3-3-3-3-------------------------------------------|

[Verse 2]

d|---------------------------------------------------------------------------|

A|---------------------------------------------------------------------------|

F|--9-9-9-9-9-9-9-9-9-9-9-9-9-9-9-9-8-8-8-8-8-8-8-8-8-8-8-8-11-11-11-11------|

C|---------------------------------------------------------------------------|

G|--7-7-7-7-7-7-7-7-7-7-7-7-7-7-7-7-6-6-6-6-6-6-6-6-6-6-6-6--9--9--9--9------|

D|---------------------------------------------------------------------------|

d|---------------------------------------------------------------------------------------------------|

A|---------------------------------------------------------------------------------------------------|

F|--12-12-12-12-12-12-12-12-12-12-12-12-12-12-12-12-14-14-14-14-14-14-14-14-14-14-14-14-14-14-14-14--|

C|---------------------------------------------------------------------------------------------------|

G|--10-10-10-10-10-10-10-10-10-10-10-10-10-10-10-10-12-12-12-12-12-12-12-12-12-12-12-12-12-12-12-12--|

D|---------------------------------------------------------------------------------------------------|

[Verse 3] x2

d|---------------------------------------------------------------------------|

A|--12-12-10-8-10--12-12-10-8-10--12-12-10-8-10--12-12-10-8-10---------------|

F|---------------------------------------------------------------------------|

C|---------------------------------------------------------------------------|

G|---------------------------------------------------------------------------|

D|---------------------------------------------------------------------------|

d|---------------------------------------------------------------------------|

A|--8-8--------8-8--------8-8--------8-8-------------------------------------|

F|------9-7-9------9-7-9------9-7-9------9-7-9-------------------------------|

C|---------------------------------------------------------------------------|

G|---------------------------------------------------------------------------|

D|---------------------------------------------------------------------------|

d|---------------------------------------------------------------------------|

A|---------------------------------------------------------------------------|

F|--7-7--------7-7--------7-7--------7-7-------------------------------------|

C|------9-7-9------9-7-9------9-7-9------9-7-9-------------------------------|

G|---------------------------------------------------------------------------|

D|---------------------------------------------------------------------------|

d|---------------------------------------------------------------------------|

A|---------------------------------------------------------------------------|

F|---------------------------------------------------------------------------|

C|--7-7----------7-7----------7-7----------7-7-------------------------------|

G|------10-7-10------10-7-10------10-7-10------10-7-10-----------------------|

D|---------------------------------------------------------------------------|

[Transition]

   PM    PM    PM   PM    PM    PM

d|---------------------------------------------------------------------------|

A|---------------------------------------------------------------------------|

F|---------------------------------------------------------------------------|

C|---------------------------------------------------------------------------|

G|----7-5---5-7---8----7-5---3-5---3-----------------------------------------|

D|--0-5-3-0-3-5-0-6--0-5-3-0-1-3-0-1-----------------------------------------|

[Chorus] x2

d|---------------------------------------------------------------------------|

A|---------------------------------------------------------------------------|

F|---------------------------------------------------------------------------|

C|---------------------------------------------------------------------------|

G|--14--14--14--14--17--12--12--10-10-9--9--9--12--12------------------------|

D|--12--12--12--12--15--10--10--8--8--7--7--7--10--10------------------------|

d|---------------------------------------------------------------------------|

A|---------------------------------------------------------------------------|

F|---------------------------------------------------------------------------|

C|---------------------------------------------------------------------------|

G|--14--14--14--12--17--17--12--12--17--17--17--12--12-----------------------|

D|--12--12--12--10--15--15--10--10--15--15--15--10--10-----------------------|

[Post-Chorus] x2

                PM  PM  PM     PM-|  PM      PM  PM   PM

d|---------------------------------------------------------------------------|

A|---------------------------------------------------------------------------|

F|--16---14-/-12---11--8---9--9-----9---11/-12---9---12---11-11--------------|

C|---------------------------------------------------------------------------|

G|--14---12-/-10---9---6---7--7-----7---9-/-10---7---10---9--9---------------|

D|-----0---------0---0---0------0-0---0--------0---0----0--------------------|

[Bridge] x3

PM---------------|    PM    PM     PM---------|

d|---------------------------------------------------------------------------|

A|---------------------------------------------------------------------------|

F|---------------------------------------------------------------------------|

C|---------------------------------------------------------------------------|

G|--2-2-2-2-2-2-2-2-2-7-5---5-7---8-7----------------------------------------|

D|--0-0-0-0-0-0-0-0-0-5-3-0-3-5-0-6-0--0-0-0-0-0-0---------------------------|

   PM    PM    PM   PM    PM    PM

d|---------------------------------------------------------------------------|

A|---------------------------------------------------------------------------|

F|---------------------------------------------------------------------------|

C|---------------------------------------------------------------------------|

G|----7-5---5-7---8---7-5---3-5---3-2----------------------------------------|

D|--0-5-3-0-3-5-0-6-0-5-3-0-1-3-0-1-0----------------------------------------|

[Bridge] x2 (add palm-muted 0s on repetition)

d|---------------------------------------------------------------------------|

A|--8---8---7---5---3---5---7---3---5---7---9---10---------------------------|

F|--9---9---7---5---4---5---7---4---5---7---9---11---------------------------|

C|--9---9---7---5---4---5---7---4---5---7---9---11---------------------------|

G|--7---7---5---3---2---3---5---2---3---5---7---9----------------------------|

D|---(0)-(0)-(0)-(0)-(0)-(0)-(0)-(0)-(0)-(0)-(0)-----------------------------|

d|---------------------------------------------------------------------------|

A|--9---9---7---5---3---5---7---3--------------------------------------------|

F|--9---9---7---5---4---5---7---4-----4---4----------------------------------|

C|--9---9---7---5---4---5---7---4-----5---5----------------------------------|

G|--7---7---5---3---2---3---5---2-----5---5----------------------------------|

D|---(0)-(0)-(0)-(0)-(0)-(0)-(0)------3---3----------------------------------|

d|---------------------------------------------------------------------------|

A|--8---8---7---5---3---5---7---3---5---7---8---12----10---------------------|

F|--9---9---7---5---4---5---7---4---5---7---9---12----11---------------------|

C|--9---9---7---5---4---5---7---4---5---7---9---12----11---------------------|

G|--7---7---5---3---2---3---5---2---3---5---7---10----9----------------------|

D|---(0)-(0)-(0)-(0)-(0)-(0)-(0)-(0)-(0)-(0)-(0)-----------------------------|

d|---------------------------------------------------------------------------|

A|--8---8---7---5---3---5---7------------------------------------------------|

F|--9---9---7---5---4---5---7-----3-------4---4------------------------------|

C|--9---9---7---5---4---5---7-----4-------5---5------------------------------|

G|--7---7---5---3---2---3---5-----4-------5---5------------------------------|

D|---(0)-(0)-(0)-(0)-(0)-(0)------2-------3---3------------------------------|

[Chorus] x2 (add last measure on repetition)

d|---------------------------------------------------------------------------|

A|---------------------------------------------------------------------------|

F|---------------------------------------------------------------------------|

C|---------------------------------------------------------------------------|

G|--14--14--14--14--17--12--12--10-10-9--9--9--12--12------------------------|

D|--12--12--12--12--15--10--10--8--8--7--7--7--10--10------------------------|

d|-----------------------------------------------------|---------------------|

A|-----------------------------------------------------|---------------------|

F|-----------------------------------------------------|---------------------|

C|-----------------------------------------------------|---------------------|

G|--14--14--14--12--17--17--12--12--17--17--17--12--12-|-12--12--12--14------|

D|--12--12--12--10--15--15--10--10--15--15--15--10--10-|-10--10--10--12------|



simplify

key

chords

key

original:   current:  

transpose  


0

expert

 

Learn the NEW Way to Sing With Freedom, Confidence, and Control

click to watch now