Learn Singing, Guitar, Piano, Bass, Percussion at www.NEATcourses.com
Get Chords at www.NEATchords.com

barrington levy
making tracks bass
Chords and lyrics

difficulty: expert



                

Play Riffs 1 & 2 respectively. Mix Riff 3 Within The Song

Riff 1:

G|----------------------|

D|-------8--6-----------| X2

A|------------8---------|

E|--6------------6------|

Riff 2:

G|--------------------------------|

D|-------8--6--------6--4---------|

A|------------8-----------6-------|

E|--6------------4-----------6----|

Riff 3:

G|------------------------|

D|------8--6--8--6--------|

A|------------------------|

E|--6---------------6-----|

Riff 4: Alternative Riff Played Once Towards The End

G|--------------------------------|

D|------8--6----------------------|

A|-----------8--------------------|

E|--6----------4-----6-6-6-4-6----|

Enjoy



simplify

key

chords

key

original:   current:  

transpose  


0

expert

 

Learn the NEW Way to Sing With Freedom, Confidence, and Control

click to watch now