Learn Singing, Guitar, Piano, Bass, Percussion at www.NEATcourses.com
Get Chords at www.NEATchords.com

beach boys
summers gone
Chords and lyrics

difficulty: expert



                Intro:

       Am7   Dm/A  Am          Am7   Dm/A  Am

e|--------3-----1-----0-----------3-----1-----0-----|

B|--------5-----3-----1-----------5-----3-----1-----|

G|-----2-----2-----2-----2-----2-----2-----2-----2--|

D|--------------------------------------------------|

A|--------------------------------------------------|

E|--------------------------------------------------|

    1  +  2  +  3  +  4  +  1  +  2  +  3  +  4  +

       Fmaj7 Dm/F  Fmaj7       C/G   G7    C/G

e|--------0-----1-----0-----------0-----1-----0-----|

B|--------1-----3-----1-----------1-----3-----1-----|

G|-----------------------------0-----0-----0-----0--|

D|-----3-----3-----3-----3--------------------------|

A|--------------------------------------------------|

E|--------------------------------------------------|

    1  +  2  +  3  +  4  +  1  +  2  +  3  +  4  +

       Am7   Dm/A  Am          Am7   Dm/A  Am

e|--------3-----1-----0-----------3-----1-----0-----|

B|--------5-----3-----1-----------5-----3-----1-----|

G|-----2-----2-----2-----2-----2-----2-----2-----2--|

D|--------------------------------------------------|

A|--------------------------------------------------|

E|--------------------------------------------------|

    1  +  2  +  3  +  4  +  1  +  2  +  3  +  4  +

Am7 Dm/A Am X2

Fmaj7 Dm/F Fmaj7

C/G G7 C/G

Am7 Dm/A Am X2

Verse 1:

Fmaj7

Summer's gone

(Fmaj7)

Summer's gone away

Dm   D7sus2   Dm

Gone a    -   way

     Bb6       C

With yesterday

Verse 2:

    Fmaj7

Old friends have gone

        (Fmaj7)

They've gone their separate ways

    Dm

Our dreams hold on

    Bb                   C

For those who still have more to say

Instrumental bridge

Fmaj7

D7sus2-Dm7

Bb

C

Verse 3:

Fmaj7

Summer's gone

(Fmaj7)

Gone like yesterday

    Dm7

The nights grow cold, it's time to go

    Bb             C

I'm thinking maybe I'll just change

Bridge:

Fmaj7

Oooooooooooh  Aaaa-

D7sus2 Dm7

Ahhhhh Na na na na na

Dm             Bb

Another summer gone

    C

Ahhhhhhhhhhhhhhhhhh

Verse 4:

Fmaj7

Summer's gone

D7sus2 - Dm7

It's finally sinking in

    Bb

One day begins, another ends

C

I live them all and back again

Verse 5:

Fmaj7

Summer's gone

    Dm7

I'm gonna sit and watch the waves

   Bb

We laugh, we cry, we live then die

    C



simplify

key

chords

key

original:   current:  

transpose  


Am7

Dm/A

Am

Fmaj7

Dm/F

C/G

G7

Bb6

C

Dm

Bb

Dm7

None

expert