Learn Singing, Guitar, Piano, Bass, Percussion at www.NEATcourses.com
Get Chords at www.NEATchords.com

beirut
transatlantique
Chords and lyrics

difficulty: expert



                   BbMaj7       Bb*       Fadd9      F7

e--6------------8---------3----------1

B--6------------6---------1----------1

G--7------------7---------2----------2

D--6------------6---------3----------3

A--8------------8---------3----------3

E--6------------6---------1----------1

   Dm7      Faug      F*

e--1--------1---------0

B--1--------2---------2

G--2--------2---------2

D--0--------3---------3

A--0--------x---------x

E--x--------1---------1

   Dm       Am       G      Gm      C

e--1--------0--------3------3-------0

B--3--------1--------1------3-------1

G--2--------2--------2------3-------0

D--0--------2--------3------5-------2

A--0--------0--------3------5-------3

E--x--------x--------1------3-------x

Bb* = Bb Major 7 add 9

F*  = F Major 7 Sharp 5

( In the intro and first verse, Condon alternates between      )

( the F and Fadd9. Listen to the studio recording to hear how. )

  (                                                              )

( https://www.youtube.com/watch?v=vVlbxWynyFE                  )

[Intro]

Bbmaj7 Bb* Fadd9 F   (x6)

[Verse 1]

    Bbmaj7 Bb*   Fadd9 F    Bbmaj7  Bb*       Fadd9  F

No, I      couldn't tell  you  how the house burned down

Bbmaj7 Bb*      Fadd9 F    Bbmaj7  Bb* Fadd9  F

Last   night while we    were run  -  ning  around

Bbmaj7  Bb*  Fadd9   F        Bbmaj7    Bb*    Fadd9  F

Mid  -  night surrounds you, the moonlight makes you proud

Bbmaj7 Bb*     Fadd9 F    Bbmaj7  Bb* Fadd9  F

Last   night, oh, we    were run  -  ning  around

[Interlude]

F7 Dm7 Faug F*   (x2)

[Chorus]

F7               Dm7                 Faug              F*

Sing for last call, sing for last fall, such was it all

F7               Dm7                 Faug              F*

Sing for last call, sing for last fall, such was it all

F7   Dm7    Faug     F*

All along I was your home

F7      Dm7    Faug     F*

All along I was your home

[Instrumental]

F7 Dm7 Faug F*

Dm Am G G Gm C Dm Dm  (x6)

F7 Dm7 Faug F*   (x2)

[Chorus]

F7               Dm7                 Faug              F*

Sing for last call, sing for last fall, such was it all

F7               Dm7                 Faug              F*

Sing for last call, sing for last fall, such was it all

    F7   Dm7    Faug     F*

And all along I was your home

F7      Dm7    Faug     F*

All along I was your home

F7      Dm7    Faug     F*

All along I was your home

F7      Dm7    Faug     F*

All along I was your home

__________________________________________________________________



simplify

key

chords

key

original:   current:  

transpose  


Dm

Am

G

Gm

C

None

expert