Learn Singing, Guitar, Piano, Bass, Percussion at www.NEATcourses.com
Get Chords at www.NEATchords.com

bombay bicycle club
dust on the ground
Chords and lyrics

difficulty: expert



                

Tuning: Standard (eBGDAE)

NOT SURE IF THESE ARE THE ACTUAL CHORDS THIS IS JUST HOW I PLAY IT.

Chords Used:

C     = x32010

G     = 320003

Am    = x02210

Em    = 022000

Cmaj7 = x32000

             C     G              Am      Em

It's that ancient love, that you won't outgrow

          C       G             Am       Em

It's the fee you pay, it's the debt you owe

           C      G             Am      Em 

It's that subtle way that you throw me down

          C       G       Am          Em

And I'm inches above the dust on the ground

Guitar Fill 1

     C        G        Am        Em

I await your call, I await your crown

        C         G                    Am   Em

Let's change our roads, and chase them all around

            C     G            Am       Em

It's that subtle way that you throw me down

           C      G       Am            Em

and I'm inches above the dust on the ground

Cmaj7                           G

And all is quiet, all is quiet now

Guitar Fill 2

Cmaj7                            G

And all is silent, all is silent now

Guitar Fill 2

Cmaj7                                 G

Now I don't hide it, I don't hide it now

            C      G               Am     Em

It's that ancient love, that just moves along

            C        G           Am         Em

There's an itch so slight, even when you're gone

       C        G            Am       Em

Well I met you right, but I kept you wrong

            C      G                     Am       Em

And I must wait until I've found the ground that you are walking on

Cmaj7                           G

And all is quiet, all is quiet now

Cmaj7                             G

And all is silent, all is silent now

Cmaj7                                G

Now I don't hide it, I don't hide it now

Cmaj7                                G

Now I don't hide it, I don't hide it now

Guitar Fill 1:

e|-------------------------------------------------|

B|-----------------------------------10-12---------|

G|--9-12----------9-12---------9-12----------------| Repeat 4 times

D|--------9-10-9--------9-10-9---------------------|

A|-------------------------------------------------|

E|-------------------------------------------------|

Guitar Fill 2:

e|-------------------------------------------------|

B|-------------------------------------------------|

G|-14-14-14-16-16-16-------------------------------| Repeat 2 times

D|-------------------12-12-16-16-16-14-14-14-12-12-|

A|-------------------------------------------------|

E|-------------------------------------------------|

Please Comment, Rate, Improve etc.

Thanks

Markie31



simplify

key

chords

key

original:   current:  

transpose  


C

G

Am

Em

Cmaj7

None

expert