Learn Singing, Guitar, Piano, Bass, Percussion at www.NEATcourses.com
Get Chords at www.NEATchords.com

brothers osborne
heart shaped locket
Chords and lyrics

difficulty: beginner



                Intro riff:

           Am       F           C       G           Am      F           C

e|-------|-------------------|-------------------|-------------------|-------------------|

B|-------|-------------------|-------------------|-------------------|------1-0----------|

G|-------|-------------------|------0-----0------|-------------------|-------------------|

D|-------|--------------3----|--0-2---0----------|--------------3----|--0-2--------------|

A|--3-2--|--0-0-2-3---3---3--|--------------3-2--|--0-0-2-3---3---3--|-------------------|

E|-------|----------1--------|-------------------|----------1--------|-------------------|

    4 +     1 + 2 + 3 + 4 +     1 + 2 + 3 + 4 +     1 + 2 + 3 + 4 +     1 + 2 + 3 + 4 +

Intro part 2/Chorus riff:

   Am       F           C       G           Am      F           C

e|-------------------|-------------------|-------------------|---------------------|

B|-------------------|-------------------|-------------------|---------------------|

G|-------------------|------0-----0------|-------------------|------0-----0--------|

D|--------------3----|--0-2---0----------|--------------3----|--0-2---0-2---2p0----|

A|--0-0-2-3---3---3--|--------------3-2--|--0-0-2-3---3---3--|------------------3--|

E|----------1--------|-------------------|----------1--------|---------------------|

    1 + 2 + 3 + 4 +     1 + 2 + 3 + 4 +     1 + 2 + 3 + 4 +     1 + 2 + 3 + 4   +

        

Intro:

|Am  F   |C   G   |Am  F   |C   G   |   

|Am  F   |C   G   |Am  F   |C   G   |   

Verse 1:

    Am          F          C         G

The sun's goin' down and I just came back

         Am             F        C     G

You were goin' out with friends

            Am               F        C            G

You're in a dress I've never seen before, and your lipstick

  Am              F       C       G

A deeper shade of red

     Am       F         C         G

Your kiss goodbye don't hit quite right

    Am                F      C     G

And neither does your alibi

Am     F     C       G  

Yeah baby, do your thing

          Am          F      C     G

Go on and have a good time

Chorus:

          Am    F      C     G

I don't believe it

           Am             F      C     G

You got me feeling like a pistol

         Am  F      C     G

Whatever you say

              Am           F       C     G

Who's in your heart shaped locket?

Verse 2:

Am             F     C         G

Sittin' in the dark, tellin' myself

Am           F      C     G

Everything's cool

          Am         F            C            G

I'm not the jealous type, but I'm startin' to feel like

  Am         F      C     G

A heartbroke fool

Am           F          C           G

Sippin' on a half drunk pint that's startin' to

Am           F      C     G

Rattle up my brain

      Am        F         C    G

Are my instincts right or am I drinkin'

  Am     F      C     G

Myself insane?

Chorus:

          Am    F      C     G

I don't believe it

           Am             F      C     G

You got me feeling like a pistol

         Am  F      C     G

Whatever you say

              Am           F       C     G

Who's in your heart shaped locket?

|Am  F   |C   G   |Am  F   |C   G   |   

|Am  F   |C   G   |Am  F   |C   G   |   

Bridge:

    Am       C/B           C         C/E

You just got home, must've lost your keys

             C

Cause you're sneakin' in the window

    Am             C/B          C         C/E

You see me sittin' there, you don't say a thing

          C              G

Cause you know that I know

Chorus:

          Am    F      C     G

I don't believe it

           Am             F      C     G

You got me feeling like a pistol

         Am  F      C     G

Whatever you say

              Am           F       C     G

Who's in your heart shaped locket?

          Am    F      C     G

I don't believe it

           Am             F      C     G

You got me feeling like a pistol

         Am  F      C     G

Whatever you say

              Am           F       C     G

Who's in your heart shaped locket?

          Am    F      C     G

I don't believe it

           Am             F      C     G

You got me feeling like a pistol

         Am  F      C     G

Whatever you say

              Am           F       C     G

Who's in your heart shaped locket?

|Am  F   |C   G   |Am  F   |C   G   |   



simplify

key

chords

key

original:   current:  

transpose  


Am

F

C

G

C/B

C/E

1

4

5

6

0

beginner