Learn Singing, Guitar, Piano, Bass, Percussion at www.NEATcourses.com
Get Chords at www.NEATchords.com

buck tick
kuchizuke bass
Chords and lyrics

difficulty: expert



                00:15 

       REPEAT UNTIL 00:27

G|-----------------------|

D|-----------------------|

A|-----------------------|

E|44444444444444444444444|

00:27

                          repeat 2x

G|---------------------------------|

D|---------------------------------|

A|--------------------9|11|12|11---|

E|8h1010108h1010108h10-------------|

00:34

       repeat until 00:39

G|-----------------------|

D|-----------------------|

A|-----------------------|

E|44444444444444444444444|

G|------|

D|------|

A|------|

E|44234-|

00:40

       repeat until 00:52

G|-----------------------|

D|-----------------------|

A|-----------------------|

E|44444444444444444444444|

                          repeat 2x

G|---------------------------------|

D|---------------------------------|

A|--------------------9|11|12|11---|

E|8h1010108h1010108h10-------------|

00:59

       repeat until 01:04

G|-----------------------|

D|-----------------------|

A|-----------------------|

E|44444444444444444444444|

01:05

G|-------------------------------------------|

D|-------------------------------------------|

A|------888788888-33323333312-555355555------|

E|44234--------------------------------1(12x)|

01:18

            repeat until 01:30        01:30

G|-----------------------------|     |----------|

D|-----------------------------|     |----------|

A|-----------------------------|     |----------|

E|44444444444444444444444444444|     |44234-----|

01:31

repeat until 01:42

G|-----------------|

D|-----------------|

A|-----------------|

E|44444444444444444|

01:43

                          repeat 2x

G|---------------------------------|

D|---------------------------------|

A|--------------------9|11|12|11---|

E|8h1010108h1010108h10-------------|

01:49

         until 01:54

G|-----------------|

D|-----------------|

A|-----------------|

E|44444444444444444|

01:55

G|-------------------------------------------|

D|-------------------------------------------|

A|------888788888-33323333312-555355555------|

E|44234--------------------------------1(12x)|

02:08

                                                          REPEAT 2X

G|------------------------------------------------------------------|

D|------------------------------------------------------------------|

A|--------------------------------7777775h7-5555553h5-3333331h3-----|

E|44444444333333332222222211111111-----------------------------1(8x)|

02:33

       repeat until 02:59

G|-----------------------|

D|-----------------------|

A|-----------------------|

E|44444444444444444444444|

02:59

G|-------------------------------------------|

D|-------------------------------------------|

A|------888788888-33323333312-555355555------|

E|44234--------------------------------1(12x)|

03:18

G|-------------------------------------|

D|-------------------------------------|

A|1/7777775h7-5555553h5-3333331h3------|

G|--------------------------------1(8X)|

                                                           REPEAT 3X

G|------------------------------------------------------------------|

D|------------------------------------------------------------------|

A|--------------------------------7777775h7-5555553h5-3333331h3-----|

E|44444444333333332222222211111111-----------------------------1(8x)|

04:01

       repeat until 04:15

G|-----------------------|

D|-----------------------|

A|-----------------------|

E|44444444444444444444444|



simplify

key

chords

key

original:   current:  

transpose  


0

expert

 

Learn the NEW Way to Sing With Freedom, Confidence, and Control

click to watch now