Learn Singing, Guitar, Piano, Bass, Percussion at www.NEATcourses.com
Get Chords at www.NEATchords.com

buena vista social club
hasta siempre comandante che guevara
Chords and lyrics

difficulty: expert



                Tuning: Standard (eBGDAE)

e|---2--4-5p4p2h4-5p4p2h4-5p4p2h4-5p4p2h5-----------------------------|

B|2---------------------------------------9p7p5h7--9p7p5h7--9p7p6h7---|

G|--------------------------------------------------------------------|

D|--------------------------------------------------------------------|

A|--------------------------------------------------------------------|

E|--------------------------------------------------------------------|

e|---------------------------------------------------------4--2--1----|

B|--9p7p5h9------7h9p7--3--5--7-7h9p7--3-5-7--7-----3---------------2-|

G|--------------------------------------------------------------------|

D|--------------------------------------------------------------------|

A|--------------------------------------------------------------------|

E|--------------------------------------------------------------------|

F#m   Bm    D   C#

Aprendimos a quererte

F#m   Bm       D    C#

desde la historica altura

F#m     Bm     D     C#

donde el Sol de tu bravura

F#m       Bm     D     C#

le puso cerco a la muerte.

F#m     Bm        D     C#

Aqui se queda la clara,

F#m     Bm        D     C#

la entranable transparencia,

F#m             E

de tu querida presencia,

D               C#



simplify

key

chords

key

original:   current:  

transpose  


F#m

Bm

D

C#

E

None

expert