Learn Singing, Guitar, Piano, Bass, Percussion at www.NEATcourses.com
Get Chords at www.NEATchords.com

caesars palace
sort it out
Chords and lyrics

difficulty: advanced



                [Intro]

    Am             C                 G              F 

e|--------------------------------------------------------------------|

B|--------5----------------8---------------3--------------1-----------|

G|----------5----------------9---------------4--------------2---------|

D|------7-----7---------10-----10--------5-----5--------3-----3-------|

A|----7--------------10----------------5--------------3---------------|

E|--5--------------8-----------------3--------------1-----------------|  x4

Am  C  G  F  x2

[Verse]

Am            C

I wanna smoke crack

G                          F

'cause you're never coming back

Am            C

i wanna shoot speedballs

G             F

bang my head against the wall

Am            C

i wanna sniff glue

G                  F          G

'cause i can't get over you

[Chorus]

Am   F     Em           E

Am i gonna sort it out?

Am   F     Em           E

am i gonna sort it out?

[Interlude]

Am  C  G  F  x2

[Verse]

Am            C

I wanna smoke crack

G                          F

'cause you're never coming back

Am            C

i wanna shoot speedballs

G             F

bang my head against the wall

Am            C

i wanna sniff glue

G                  F          G

'cause i can't get over you

[Chorus]

Am   F     Em           E

Am i gonna sort it out?

Am   F     Em           E

am i gonna sort it out?

Am   F     Em           E

Am i gonna sort it out?

Am   F     Em           E

am i gonna sort it out?

[Interlude]

Am  C  G  F  x2

[Chorus]

Am   F     Em           E

Am i gonna sort it out?

Am   F     Em           E

am i gonna sort it out?

Am   F     Em           E

Am i gonna sort it out?

Am   F     Em           E

am i gonna sort it out?

[Intro]

    Am             C                 G              F 

e|--------------------------------------------------------------------|

B|--------5----------------8---------------3--------------1-----------|

G|----------5----------------9---------------4--------------2---------|

D|------7-----7---------10-----10--------5-----5--------3-----3-------|

A|----7--------------10----------------5--------------3---------------|



simplify

key

chords

key

original:   current:  

transpose  


Am

C

G

F

Em

E

1

3

4

5

6

9

0

advanced