Learn Singing, Guitar, Piano, Bass, Percussion at www.NEATcourses.com
Get Chords at www.NEATchords.com

camila
besame
Chords and lyrics

difficulty: expert



                Capo (3th)

In the parts there aren't any chord goes the melody of the intro

INTRO:

e|---3-----------2----------0----------------------------|

B|----------0----------0-----------0----3--------0-------|

G|------0-----------0----------0-------------0-----------|

D|-------------------------------------------------------|

A|-------------------------------------------------------|

E|-------------------------------------------------------| (x2)

e|----------7h9v---12h14------------------------------|

B|------9-10------------12h14-10/12---10-9h10p9-------|

G|-9h11-----------------------------------------9h11v-|

D|----------------------------------------------------|

A|----------------------------------------------------|

E|----------------------------------------------------|

Bésame ... a destiempo sin quedar y en silencio

bésame ... frena el tiempo has crecer lo que siento

E           Am                          Bm   Em

Bésame como si el mundo se acabara despues

E           Am                          Bm   Em

bésame y beso a beso por el cielo al revéz

E           Am           Bm       Em   D

bésame sin razon porque quiere el corazón

Bésame ...

Sientemé en el viento

mientras yo

muero lento

bésame sin motivo

y estare siempre contigo

E           Am                          Bm   Em

Bésame como si el mundo se acabara despues

E           Am                          Bm   Em

bésame y beso a beso por el cielo al revéz

E           Am           Bm       Em   D

bésame sin razon porque quiere el corazón

(intro)

Bésame ...

E           Am                          Bm   Em

Bésame como si el mundo se acabara despues

E           Am                          Bm   Em

bésame y beso a beso por el cielo al revéz  (x2)

E           Am           Bm       Em   D

bésame sin razon porque quiere el corazón

(intro)

Bésame ...

bésame asi, sin compasión

quedaTe en mi sin condición

dame tan solo un motivo

y me quedo yo (x4)



simplify

key

chords

key

original:   current:  

transpose  


E

Am

Bm

Em

D

None

expert