Learn Singing, Guitar, Piano, Bass, Percussion at www.NEATcourses.com
Get Chords at www.NEATchords.com

candlebox
sometimes
Chords and lyrics

difficulty: expert



                

--------------------------------------------

Tuning E-C-E-F-C-f

Verse/Intro Chords

     F             Bb

f----------------------------------------------------|

C----------------------------------------------------|

F----------------------------------------------------|

E----1-------------6---------------------------------|

C------------------5---------------------------------|

E----1-------------6---------------------------------|

I wipe the night from my eyes....

Pre-Chorus/Chorus

     Dm             C             Bb

f----------------------------------------------------|

C----------------------------------------------------|

F----------------------------------------------------|

E----10-------------8-------------6------------------|

C----9--------------7-------------5------------------|

E----10-------------8-------------6------------------|

We change directions....

     Bb              A          Bb

f----------------------------------------------------|

C----------------------------------------------------|

F----------------------------------------------------|

E----6---------------5----------6--------------------|

C----5---------------4----------5--------------------|

E----6---------------5----------6--------------------|

We separate you from me...but sometimes

     Bb    C     Dm     F

f----------------------------------------------------|

C----------------------------------------------------|

F----------------------------------------------------|

E----6-----8-----10-----1----------------------------|

C----5-----6-----9-----------------------------------|

E----6-----8-----10-----1----------------------------|

Sometimes we carry more weight than we own

SOLO Chords

     Bb    A     Dm

f------------------------|

C------------------------|

F------------------------|

E----6-----5-----10------|  x4

C----5-----4-----9-------|

E----6-----5-----10------|

     F     Dm     C

f------------------------|

C------------------------|

F------------------------|

E----1-----10-----8------|  x4

C----------9------7------|

E----1-----10-----8------|

After SOLO Pre-Chorus/Chorus

     Dm     C     G     A

f---------------------------------------------------------------|

C---------------------------------------------------------------|

F---------------------------------------------------------------|

E----10-----8-----3-----5---------------------------------------|

C----9------7-----2-----4---------------------------------------|

E----10-----8-----3-----5---------------------------------------|

We form restrictions and we form lines...we separate you from me

End Chords

     F     Ab                  End Chord

f------------------------      ------------|

C------------------------      ------------|

F------------------------      ------------|

E----1-----4-------------  x4  -----3------|

C----------3-------------      -----2------|

E----1-----4-------------      -----3------|

I've got everything....           in you

*For a great reference, watch their performance of this on their DVD ALIVE IN SEATTLE*



simplify

key

chords

key

original:   current:  

transpose  


F

Bb

Dm

C

A

G

None

expert