Learn Singing, Guitar, Piano, Bass, Percussion at www.NEATcourses.com
Get Chords at www.NEATchords.com

caparezza
prosopagno sia
Chords and lyrics

difficulty: expert



                [Intro]

G|----|----|----|-----|----|----|----|-----|

D|----|----|----|-----|----|----|----|-----|

A|----|----|----|-----|----|----|----|-----|

E|6---|6---|6---|(6)--|6---|6---|6---|(6)--|

[Verse 1]

G|--------|------|--------|-----|--------|-------|----|--------|-----------|

D|--------|------|--------|-----|--------|-------|----|----3---|4----------|

A|--------|------|--------|-----|--------|-------|----|6-------|----6---6-4|

E|6---6---|------|6---6---|-----|6---6---|----4-6|----|--------|-----------|

[Chorus]

G|--------------|-------------|--------------|----1-1h3-3--3-1|

D|--------------|--3----------|--------------|--3-------------|

A|1--4-------1-4|------1-1-4--|1--4-------1-4|----------------|

E|-----1---4----|----1-------4|-----1---4----|----------------|

G|-----------1--|------------------|----------|----------|

D|4-4---3-4----3|3h4-4---3-3h4-4--3|1-1---1---|1------1--|

A|--------------|------------------|-----4---1|--------4-|

E|--------------|------------------|----------|----------|

[Verse 2]

G|--------|--------|--------|--------|-------|-------|--------|---------|

D|--------|--------|--------|--------|-------|-------|----3---|4--------|

A|1-------|(1)-----|(1)-----|(1)-----|-------|-------|6-------|---6--6-4|

E|--------|--------|--------|--------|-------|-------|--------|---------|

G|----11h13p11h13p11h13p11h13------------|-----------11h13p11h13p11h13p11h13-----------|

D|---------------------------11h13p11h13p|11h13p11h13-----------------------11h13p11h13|

A|---------------------------------------|---------------------------------------------|

E|6--------------------------------------|---------------------------------------------|

G|----11h13p11h13p11h13p11h13------------|-----------11h13p11h13p11h13p11h13-----------|

D|---------------------------11h13p11h13p|11h13p11h13-----------------------11h13p11h13|

A|---------------------------------------|---------------------------------------------|

E|6--------------------------------------|---------------------------------------------|

G|----11h13p11h13p11h13p11h13------------|-----------11h13p11h13p11h13p11h13-----------|

D|---------------------------11h13p11h13p|11h13p11h13-----------------------11h13------|

A|---------------------------------------|------------------------------------------4-6|

E|6--------------------------------------|---------------------------------------------|

G|---------------------------------------|--------------------------------|

D|------------------3--------------------|4----------------------------6--|

A|6--------------------------------------|---------------------6----4-----|

E|---------------------------------------|-------------------------------4|

[Chorus]

G|--------------|-------------|--------------|----1-1h3-3--3-1|

D|--------------|--3----------|--------------|--3-------------|

A|1--4-------1-4|------1-1-4--|1--4-------1-4|----------------|

E|-----1---4----|----1-------4|-----1---4----|----------------|

G|-----------1--|--------------3---|----------|---------------|

D|4-4---3-4----3|3h4-4---3-3h4----3|1-1---1---|1-1---1----3---|

A|--------------|------------------|-----4---1|-----4---------|

E|--------------|------------------|----------|------------1-4|

[Verse 3]

G|--------|--------|--------|--------|-------|-------|-------|----------|

D|--------|--------|--------|--------|-------|-------|---3---|4---------|

A|1-------|(1)-----|(1)-----|(1)-----|-------|-------|6------|---6---6-4|

E|--------|--------|--------|--------|-------|-------|-------|----------|

G|--------|--------|--------|--------|-------|-------|-------|----------|

D|--------|--------|--------|--------|-------|-------|---3---|4---------|

A|--------|--------|--------|--------|-------|-------|6------|---6---4-6|

E|6-------|-------4|6-------|-------4|6------|------6|-------|----------|

[Chorus]

G|--------|--------|--------|--------|--------|-------|-------|---------|

D|--------|--------|--------|--------|--------|-------|-------|---------|

A|--------|--------|--------|--------|--------|------4|6-----4|6--------|

E|6------4|6------4|6------4|6------1|2------1|2------|-------|---------|

G|--------------|-------------|--------------|----1-1h3-3--3-1|

D|--------------|--3----------|--------------|--3-------------|

A|1--4-------1-4|------1-1-4--|1--4-------1-4|----------------|

E|-----1---4----|----1-------4|-----1---4----|----------------|

G|-----------1--|--------------3-----|----------|---------------|

D|4-4---3-4----3|3h4-4--3-3h4---3h4-3|1-1---1---|1-1---1--------|

A|--------------|--------------------|-----4---1|-----4---------|

E|--------------|--------------------|----------|------------1-4|

[Outro]

G|--------------|-------------|--------------|----1-1h3-3--3-1|

D|--------------|--3----------|--------------|--3-------------|

A|1--4-------1-4|------1-1-4--|1--4-------1-4|----------------|

E|-----1---4----|----1-------4|-----1---4----|----------------|

G|-----------1--|------------------|----------|---------------|

D|4-4---3-4----3|3h4-4---3-3h4-4--3|1-1---1---|1-1---1--------|

A|--------------|------------------|-----4---1|-----4---------|

E|--------------|------------------|----------|----------x-4-1|

G|--------------|-------------|--------------|----1-1h3-3--3-1|

D|--------------|--3----------|--------------|--3-------------|

A|1--4-------1-4|------1-1-4--|1--4-------1-4|----------------|

E|-----1---4----|----1-------4|-----1---4----|----------------|

G|-----------1--|------------------|----------|---------------|

D|4-4---3-4----3|3h4-4---3-3h4-4--3|1-1---1---|1-1---1--------|

A|--------------|------------------|-----4---1|-----4---------|

E|--------------|------------------|----------|------------4-1|

G|-----------------------------------------------------------------------------|

D|-----------------------------------------------------------------------------|

A|-----------------------------------------------------------------------------|

E|6----------------------------------------------------------------------------|



simplify

key

chords

key

original:   current:  

transpose  


0

expert