Learn Singing, Guitar, Piano, Bass, Percussion at www.NEATcourses.com
Get Chords at www.NEATchords.com

captain beefheart and his magic band
bluejeans and moonbeams
Chords and lyrics

difficulty: expert



BBluejeans and Moonbeams by Don Van Vliet (Captain Beefheart)

G D C D X2

--7--7-8-7-----5--5-7-5-----3--3-5-3-----2--2-3-2------------|

------------8------------7------------5-------------3--------|

-------------------------------------------------------------|

-------------------------------------------------------------|

-------------------------------------------------------------|

-------------------------------------------------------------|

G                  D

I've been hoping on Mondays

Somehows and Moondays

C               G

Sundays and somedays

Never seeing somedays

D             A

I'm trying in all ways

C               G

And learning in between

G                 D

Bluejeans and Moonbeams

Bluejeans and Moonbeams

D                  A

I been working up in loving

C                    G

Underneath the moonstone sky

C                        G               C          G

I know there's many things I've never seen

D                 A

Bluejeans and Moonbeams

C                G

Mondays and moonbeams

G                 D

Bluejeans and Moonbeams

Bluejeans and Moonbeams

G D C D X2

--7--7-8-7-----5--5-7-5-----3--3-5-3-----2--2-3-2------------|

------------8------------7------------5-------------3--------|

-------------------------------------------------------------|

-------------------------------------------------------------|

-------------------------------------------------------------|

-------------------------------------------------------------|

G                  D

I've been hoping on Mondays

Somehows and Moondays

C               G

Sundays and somedays

Never seeing somedays

D            A

I'm trying in all ways

C             G

And learning in between

G                 D

Bluejeans and Moonbeams

Bluejeans and Moonbeams

D                  A

I been working up in loving

C                    G

Underneath the moonstone sky

C                        G               C          G

I know there's many things I've never seen

D                 A

Bluejeans and Moonbeams

C                G

Mondays and moonbeams

G                 D

Bluejeans and Moonbeams

Mondays and moonbeams

G D C D x2

G D x2

C G x2

D A C G G D G D

D A C G C G C G

D A C G G D G D

my recordings:



simplify

key

chords

key

original:   current:  

transpose  


G

D

C

A

None

expert