Learn Singing, Guitar, Piano, Bass, Percussion at www.NEATcourses.com
Get Chords at www.NEATchords.com

carbon leaf
one prairie outpost
Chords and lyrics

difficulty: expert



I heard this song and it needed to be tabbed. The intro on the other version is pretty

not because im a pompous guy or anything, but because it doesnt sound anything like the song..

This might be a little better

INTRO/Verse

e|--8-----------------5--3----------------------------------------------|

B|--8-----------------5--3----------------------------------------------|

G|--10----------------7--5----------------------------------------------|

D|--10------7h8h7-----7--5----------------------------------------------|

A|--8---8h10-----10---5--3----------------------------------------------|

E|----------------------------------------------------------------------|

*Singing comes in after first chord and riff.

CHORUS

Ill tab out the rhythym too

Scene.......passes by my life

e|--6---------------8-----5---------------------------------------|

B|--6---------------8-----6---------------------------------------|

G|--7---------------9-----7---------------------------------------|

D|--8---------------10----7---------------------------------------|

A|--8---------------10----5---------------------------------------|

E|--6---------------8---------------------------------------------|

The windows a .....road is a knife

e|--6---------------5-------8-------------------------------------------|

B|--6---------------5-------8-------------------------------------------|

G|--7---------------6-------9-------------------------------------------|

D|--8---------------7-------10------------------------------------------|

A|--8---------------7-------10------------------------------------------|

E|--6---------------5-------8-------------------------------------------|

The irony asks me "Where Have you been?"

e|--6---------------8--------------5----------------------------------|

B|--6---------------8--------------6----------------------------------|

G|--7---------------9--------------7----------------------------------|

D|--8---------------10-------------7----------------------------------|

A|--8---------------10-------------5----------------------------------|

E|--6---------------8-------------------------------------------------|

*this last part consists of the first chord, then striking second chord twice, then

to last chord and strumming once.

**strike twice

*rest

I dont know....because I Dont** know where* to begin

e|--6---------------------5---------8------------------------------------|

B|--6---------------------5---------8------------------------------------|

G|--7---------------------6---------9------------------------------------|

D|--8---------------------7---------10-----------------------------------|

A|--8---------------------7---------10-----------------------------------|

E|--6---------------------5---------8------------------------------------|

Back to intro..

Attempted bridge

e|--5--8---5--3--5--8---5--5--8---------------------------------------------|

B|--6--8---6--3--6--8---6--5--8---------------------------------------------|

G|--7--9---7--5--7--9---7--6--9---------------------------------------------|

D|--7--10--7--5--7--10--7--7--10--------------------------------------------|

A|--5--10--5--3--5--10--5--7--10--------------------------------------------|

E|-----8------------8------5--8---------------------------------------------|

| /  slide up

| \  slide down

| B  hammer-on

| p  pull-off

| ~  vibrato

| +  harmonic

| x  Mute note



simplify

key

chords

key

original:   current:  

transpose  


0

expert