Learn Singing, Guitar, Piano, Bass, Percussion at www.NEATcourses.com
Get Chords at www.NEATchords.com

cargo
ziua vrajitoarelor bass
Chords and lyrics

difficulty: expert



-----------------------------------------------------------------------------

                             Ziua vrajitoarelor - Cargo

-----------------------------------------------------------------------------

Intro:

G|---4----4----44------2-----------------------------------|

D|-2---22---22----22-3---3-0-------------------------------|

A|---------------------------------------------------------|

E|---------------------------------------------------------|(x3)

G|---4----4----44------------------------------------------|

D|-2---22---22---------------------------------------------|

A|----------------3-2-0------------------------------------|

E|----------------------3-2-0------------------------------|

This part is all about the rhythm! Listend it close.

G|---------------------------------------------------------|

D|---------------------------------------------------------|

A|---------------------------------------------------------|

E|-000-000-00-101--0-00-0-000-00-101-----------------------|(x2)

G|---------------------------------------------------------|

D|---------------------------------------------------------|

A|---------------------------------------------------------|

E|-000-000-00-101--0-00-0-00-------------------------------|

Solo:

G|---------------------------------------------------------|

D|---------------------------------------------------------|

A|---------------------------------------------------------|

E|-000-000-00-101--0-00-0-000-00-101-----------------------|(x4)

Verse:

The part before the verse and the vers it self are all Es. So you can play whatever you want.

Middle riff:

G|---------------------------------------------------------|

D|---------------------------------------------------------|

A|---------------------------------------------------------|

E|-000-000-00-101--0-00-0-000-00-101-----------------------|(x2)

Verse 2 like the first one!

Chorus:

G|---------------------------------------------------------|

D|---------------------------------------------------------|

A|---------------------------------------------------------|

E|-000-000-00-101--0-00-0-000-00-101-----------------------|(x4)

Middle part again:

G|---------------------------------------------------------|

D|---------------------------------------------------------|

A|---------------------------------------------------------|

E|-000-000-00-101--0-00-0-000-00-101-----------------------|(x2)

The "oooo" part:

G|---------------------------------------------------------|

D|---------------------------------------------------------|

A|---------------------------------------------------------|

E|-3~-3~-30--5~-5~-50-00-00-00-00-0000---------------------|(x2)

G|---------------------------------------------------------|

D|---------------------------------------------------------|

A|--------------------5~-5~-55-33--------------------------|

E|-3~-3~-30--5~-5~-50--------------------------------------|

G|---------------------------------------------------------|

D|---------------------------------------------------------|

A|--------------------5555555------------------------------|

E|-3~-3~-30--5~-5~-50--------------------------------------|

Solo:

G|---------------------------------------------------------|

D|---------------------------------------------------------|

A|---------------------------------------------------------|

E|-000-000-00-101--0-00-0-000-00-101-----------------------|(x4)

Chorus:

G|--------------------------------------------------------|

D|--------------------------------------------------------|

A|--------------------------------------------------------|

E|-000-000-00-101--0-00-0-000-00-101----------------------|(x4)

The "ooooo" part again, the same as the one before.

Solo:

G|--------------------------------------------------------|

D|--------------------------------------------------------|

A|--------------------------------------------------------|

E|-000-000-00-101--0-00-0-000-00-101----------------------|(x3)

G|--------------------------------------------------------|

D|--------------------------------------------------------|

A|--------------------------------------------------------|

E|-000-000-00-101--00~------------------------------------|

Ending:

G|--------------------------------------------------------|

D|--------------------------------------------------------|

A|--------------------------------------------------------|

E|-0-1-3-5-3-1-0------------------------------------------|

Basically, the main riff is tricky but if you catch it it becomes very simple. About the

verse, as I said, it`s all E. You cand play on the scale. And for the end, at the main

riff, you can add your own variations. Good luck my friends.



simplify

key

chords

key

original:   current:  

transpose  


0

expert

 

New Free App: Soji lets you instantly record, enhance & share your songs. Download Now ยป