Learn Singing, Guitar, Piano, Bass, Percussion at www.NEATcourses.com
Get Chords at www.NEATchords.com

celldweller
just like you
Chords and lyrics

difficulty: expert



                Tuning:Standard

Hold the Dminor chord for to bars each

Intro

Dm    Bb   C    

You...

Dm    Bb   C

You...

Dm    Bb   C

You...

Verse 1

Dm                                               Bb     C

It's the dark of night and I'm at the end of the line

Dm                                         Bb

Alone in my head and waiting for something divine

C

To answer me

Dm                                            Bb

Drowning for silence the internal violence, I pray

C

To make it through

Dm                                                  Bb

The stormwinds are growing as my dreams are blowing away

C

Just like you

Chorus

Dm     Bb   C

You....

Dm     Bb   C

You...

Dm     Bb   C

You...

Verse 2

Dm                                                                                    

Out at the edge the moonlight reflecting from me

Dm

The collapse of the waves echoing eternally, as I cry out

Dm

If I'm living my life then why does it feel like my heart,

C

will break in two?

Dm                                          Bb

Failure is calling as my dreams are falling apart

C

Just like you

Chorus

Dm    Bb   C

You...

Dm    Bb   C

You...

Dm    Bb   C

You..

Just like you

Dm    Bb   C

You...

Dm    Bb   C

You...

Dm    

You...

Bb                  C

I feel just like you

Outro

e|---------------------------------------------------------------------------------------|

B|---------------------------------------------------------------------------------------|

G|-----14--12--14--10-------14--12--14--9------14--12--14------------14--12---14---------|

D|-12------------------12------------------14--------------15----14---------------14-----|

Intro Tab

e|---------------------------------------------------------------------------------------|

B|---------------------------------------------------------------------------------------|

G|-----14--12--14--10-------14--12--14--9------14--12--14------------14--12---14---------|

D|-12------------------12------------------14--------------17----14---------------14-----|



simplify

key

chords

key

original:   current:  

transpose  


Dm

Bb

C

None

expert