Learn Singing, Guitar, Piano, Bass, Percussion at www.NEATcourses.com
Get Chords at www.NEATchords.com

charles aznavour
emmenez moi bass
Chords and lyrics

difficulty: expert



                [Intro]

G|------------|------------|------------|------------|

D|------7--5--|------------|------7--5--|------------|

A|----------8-|7---------7-|----------8-|7-----------|

E|5-----------|------0-----|5-----------|------0-+---|

[Verse1]

G|------------|------------|------------|------------|------------|------------|------------|------------|

D|------7---6-|5---------6-|7-----------|------------|------7---6-|5---------6-|7-----------|------7-----|

A|------------|------------|----------5-|7-----------|------------|------------|----------5-|7-----------|

E|5-----------|------3-----|------5-8---|------0-----|5-----------|------3-----|------5--8--|------------|

G|------------|------------|------------|------------|------------|------------|------------|------------|

D|3-----5-----|3-----5-----|3-----------|------------|------3-----|------3-----|------------|------------|

A|------------|------------|------------|3-----------|3---------5-|3-----------|3-----3---5-|7-----------|

E|------------|------------|------1-----|------3-----|------------|------------|------------|------0-----|

G|------------|------------|------------|------------|------------|------------|------------|------------

D|------7-----|------5-----|------7-5---|------------|------7-----|5-----------|------------|------------

A|------------|------------|----------8-|7-----------|------------|------------|------7-----|------------

E|5-----------|3-----------|5-----------|------0-----|5-----------|------3-----|5---------8-|5-+---5--7--8

[Chorus]

G|------------|------------|------------|------------|------------|------------|------------|------------|

D|------------|------------|------------|------------|------------|------------|------------|------------|

A|----------2-|3-----3-2---|----------2-|3-----3---5-|--7-----7---|----7-------|------------|------------|

E|3-----3-5---|----------5-|3-----3-5---|------------|0---7-0---7-|5-5---5-3-0-|5-----0---0-|5-+---------|

[Verse2]

G|------------|------------|------------|------------|------------|------------|------------|------------|

D|------------|------------|------------|------------|------7---6-|5---------6-|7-----------|------------|

A|------------|------------|----------5-|7-----------|------------|------------|----------5-|7-----------|

E|5-----5-----|3-----3---0-|5-----5--8--|------0-----|5-----------|------3-----|------5--8--|------5-----|

G|------------|------------|------------|------------|------------|------------|------------|------------|

D|------------|------------|------------|------------|------------|------------|------------|------------|

A|------------|------------|----------0-|3-----------|3-----------|3----------2|3-----3---5-|7-----------|

E|1-----3-----|1-----3-----|1-----1-----|------3-----|------1-----|------1-----|------------|--0-0-0-0-0-|

G|------------|------------|------------|------------|------------|------------|------------|------------

D|------7-----|5-----------|------------|------------|------------|------------|------------|------------

A|------------|------------|------------|------------|------------|------------|----------7-|------------

E|5-----------|------3-----|5-----5-3-1-|0-----0---4-|5-----5-----|3-----3-----|5-----0-----|5-+---5---7-8

[Chorus2]

G|------------|------------|------------|------------|------------|------------|------------|------------|

D|------------|------------|------------|----------3-|2-----------|------------|------------|------------|

A|----------2-|3-----3-2---|----------2-|3-----3-5---|------------|----7-------|------------|------------|

E|3-----3-5---|----------5-|3-----3-5---|------------|------0-2-4-|5-----5-3-1-|0-----0-----|5-+---------|

[Verse3]

G|------------|------------|------------|------------|------------|------------|------------|------------|

D|------------|------------|------------|------------|------------|------------|------------|------------|

A|------------|----5-------|------------|------7-----|------7-4---|------------|------------|------------|

E|5-----5-----|3-----3---4-|5-----5--31-|0---------0-|5---------5-|3-----3---3-|5-----5-3-1-|0-----5-----|

G|------------|------------|------------|------------|------------|------------|------------|------------|

D|------------|------------|------------|------------|------------|------------|------------|------------|

A|------------|------------|----------2-|3---------2-|3-----------|3----------2|3-----3---5-|7---7-------|

E|1-----3-----|1-----3-----|1-----1-----|------3-----|------1-----|------1-----|------------|------0-2-4-|

G|------------|------------|------------|------------|------------|------------|------------|------------

D|------------|----5-------|------------|------------|------------|------------|------------|------------

A|------------|------------|------------|--------7---|------------|---------5--|------7---4-|------------

E|5-----5-----|3-----3--03-|5-----5-3-1-|0---0-07--0-|5-----5---4-|3-----3---3-|5-----------|5-+---5--7-8

[Chorus3]

G|------------|------------|------------|------------|------------|------------|------------|------------|

D|---5-5------|------------|------------|------------|------------|------------|------------|------------|

A|----------2-|3--3--3-2---|----------2-|3---3-3-5-6-|7-----------|------------|------7-----|------------|

E|3-----3-5---|----------5-|3--3--3-5---|------------|------0-----|5-----5---0-|5---------0-|5-+---5--7-8|

[Chorus4]

G|------------|------------|------------|------------|------------|------------|------------|------------|

D|--5-----5---|----5-------|--5-----5---|------------|------------|------------|------------|------------|

A|----5-----5-|3-3---3-3-3-|----5-----5-|3-3-3-3-3-3-|--7-----7---|----7-------|------------|------------|

E|3-----3-----|------------|3-----3-----|------------|0---7-0---7-|5-5---5-3-0-|5-----0---0-|5-----5-----|

G|------------|------------|------------|------------|------------|------------|------------|------------|

D|--5-----5---|----5-------|--5-----5---|------------|------------|------------|------------|------------|

A|----5-----5-|3-3---3-3-3-|----5-----5-|3-3-3-3-3-3-|--7-----7---|----7-------|------------|------------|

E|3-----3-----|------------|3-----3-----|------------|0---7-0---7-|5-5---5-3-0-|5-----0---0-|5-----5-----|

G|------------|------------|------------|------------|------------|------------|------------|------------|

D|--5-----5---|----5-------|--5-----5---|------------|------------|------------|------------|------------|

A|----5-----5-|3-3---3-3-3-|----5-----5-|3-3-3-3-3-3-|--7-----7---|----7-------|------------|------------|



simplify

key

chords

key

original:   current:  

transpose  


0

expert

 

Learn the NEW Way to Sing With Freedom, Confidence, and Control

click to watch now