Learn Singing, Guitar, Piano, Bass, Percussion at www.NEATcourses.com
Get Chords at www.NEATchords.com

charles bradley
changes live
Chords and lyrics

difficulty: intermediate



[Verse]

   ~       C   Dm     C        ~       C   Dm     C       ~          Dm   Dm     ~        C  Dm      C

E|--------------------------||--------------------------||---------------------||--------------------------||

B|---------5-x-6-6-x--5-5-x-||---------5-x-6-6-x--5-5-x-||-----------6--5-6-x-6||---------5-x-6-6-x--5-5-x-||

G|---------5-x-7-7-x--5-5-x-||---------5-x-7-7-x--5-5-x-||-----------7--5-7-x-7||---------5-x-7-7-x--5-5-x-||

D|---------5-x-7-7-x--5-5-x-||---------5-x-7-7-x--5-5-x-||-----------7--5-7-x-7||---------5-x-7-7-x--5-5-x-||

A|-------3-3-x-5-5-x--3-3-x-||-------3-3-x-5-5-x--3-3-x-||----3----3/5--5-5-x-5||-------3-3-x-5-5-x--3-3-x-||

E|-3--5---------------------||-3--5---------------------||-5-----5-------------||-3--5---------------------||

[Chorus]

  F             Em           Dm               F            Em           Dm

E|----------------------------------------------------||------------------------------5-5-5-5-5-5h7-----||

B|--------------10-10-10-----8-8-8------5-5-5-5-5--5-5||-----10-10-10-----8-8-8-------6-5-6-6-6-----6---||

G|-----5--------10-10-10-----9-9-9------6-5-6-6-6--6-6||-----10-10-10-----9-9-9-------7-5-7-7-7-------7-||

D|-----5--------10-10-10-----9-9-9------7-5-7-7-7--7-7||-----10-10-10-----9-9-9--0-0--------------------||

A|-3/7---7-8--8-8--8--8--7-7-7-7-7--0-0---------------||-8-8-8--8--8--7-7-7-7-7-------------------------||

E|----------------------------------------------------||------------------------------------------------||

   F            Em            Dm              G       F     Am/E

E|-----------------------------------------||-3-3-3-3-1-1-x-0---------------------------------0-||

B|-----10-10-10-----8-8-8-----5-5-5-5-5-5--||-3-3-3-3-1-1-0-1---1---1---1-1-1-1---1---1-------1-||

G|-----10-10-10-----9-9-9-----6-5-6-5-6-6--||-4-4-4-4-2-2-0-2---2---2---0-0-0-2---2---0h2---0-2-||

D|-----10-10-10-----9-9-9-----7-5-7-5-7-7--||-5-5-5-5-3-3-0-2-2---2---2-0-0-0-2-2---2-----2---2-||

A|-8-8-8--8--8--7-7-7-7-7--0-0-------------||-5-5-5-5-3-3-0-3-0---0---0-0-0-0-2-0---0---------0-||

E|-----------------------------------------||-3-3-3-3-1-1-x-------------------------------------||

[Verse]

          C     Dm  C

I feel unhappy

          C     Dm  C

I feel so sad

              Dm

I lost the best friend

             C

That I ever had

             C

She was my woman

            C

I loved her so

              Dm

But it's too late now

             C

I've let her go

[Chorus]

F    Em           Dm

I'm going through changes

F    Em           Dm

I'm going through Changes

F      Em             Dm

Ohhh it hurts so bad -in my life-

G    F          Am/E 

It's gonna be a change in my life

[Verse]

                C   Dm C

We shared the years

                C   Dm C

We shared each day

             Dm

In love together

            C  Dm C

We found a way

               C   Dm C

But soon the world

              C   Dm C

Had its evil way

                 Dm

My heart was blinded

              C  Dm C

Love went astray

[Chorus]

F    Em           Dm

I'm going through changes

F    Em           Dm

I'm going through Changes

F    Em           Dm

Ohhh it hurts so bad  - in my life-

G             F          Am/E

It's gonna be a change in my life - somebody gotta help me

[Verse]

             C  Dm C

It took so long

        C  Dm  C

To realize

            Dm

I can still hear her

             C    Dm C

Last goodbyes

            C   Dm C

Now all my days

             C    Dm C

Have turn to tears

             Dm

Wish I could go back

                 C     Dm C

And change these years

[Chorus]

F    Em           Dm

I'm going through changes

F    Em           Dm

I'm going through Changes

F    Em           Dm

Lord it hurts so bad  - in my life-

G             F          Am/E

It's gonna be a change in my life - somebody gotta help me

[Outro]

Am C



simplify

key

chords

key

original:   current:  

transpose  


F

Em

Dm

G

Am/E

C

Am

1

2

3

4

5

6

0

intermediate

 

Learn the NEW Way to Sing With Freedom, Confidence, and Control

click to watch now