Learn Singing, Guitar, Piano, Bass, Percussion at www.NEATcourses.com
Get Chords at www.NEATchords.com

charles trenet
la mer bass
Chords and lyrics

difficulty: expert



[Verse 1:]

G|-------------------------------------------------------------------|

D|---------3---5-----------3---5---2---2---5---3-1---------3---3-----|

A|-3---0-----------3---0---------------------------3---0-----------5-|

E|-------------------------------------------------------------------|

G|----------------------------|

D|-5-6-7---3---0---0---5-3-2--|

A|--------------------------5-|

E|----------------------------|

[Verse 2:]

G|-------------------------------------------------------------------|

D|---------3---5-----------3---5---2---2---5---3-1---------3---3-----|

A|-3---0-----------3---0---------------------------3---0-----------5-|

E|-------------------------------------------------------------------|

G|---------------------------|

D|-5-6-7---3---0---5---------|

A|---------------------3---2-|

E|---------------------------|

[Verse 3:]

G|---------------------------------------------------------------|

D|-2-------4-------2-------4-------2---1-----------5-------------|

A|-----4-------2-------4-------2-----------4---2-------7---3---5-|

E|---------------------------------------------------------------|

G|-------------------------------|

D|-5---------------5---4---------|

A|-----7---3---5-----------7---5-|

E|-------------------------------|

[Verse 4]

G|-------------------------------------------------------------------|

D|---------3---5-----------3---5---2---2---5---3-1---------3---3-----|

A|-3---0-----------3---0---------------------------3---0-----------5-|

E|-------------------------------------------------------------------|

G|---------------------------|

D|-5-6-7---3---0---5---------|

A|---------------------3-----|

E|-------------------------3-|

G|-------------------------------------------------------------------|

D|---------3---5-----------3---5---2---2---5---3-1---------3---3-----|

A|-3---0-----------3---0---------------------------3---0-----------5-|

E|-------------------------------------------------------------------|

G|----------------------------|

D|-5-6-7---3---0---0---5-3-2--|

A|--------------------------5-|

E|----------------------------|

G|---------------------------------------------------------------|

D|-2-------4-------2-------4-------2---1-----------5-------------|

A|-----4-------2-------4-------2-----------4---2-------7---3---5-|

E|---------------------------------------------------------------|

G|-------------------------------|

D|-5---------------5---4---------|

A|-----7---3---5-----------7---5-|

E|-------------------------------|

[Last Verse:]                                                  (Pause)

G|-------------------------------------------------------------------|

D|---------3---5-----------3---5---2---2---5---3-1---------3---3-----|

A|-3---0-----------3---0---------------------------3---0-----------5-|

E|-------------------------------------------------------------------|

(Bass Chord And End)

G|------------------------5-----|

D|----3-------0-----------------|

A|------------------------3-----|



simplify

key

chords

key

original:   current:  

transpose  


0

expert

 

New Free App: Soji lets you instantly record, enhance & share your songs. Download Now ยป