Learn Singing, Guitar, Piano, Bass, Percussion at www.NEATcourses.com
Get Chords at www.NEATchords.com

charlie daniels
in america (picking
Chords and lyrics

difficulty: expert



                (Intro)

Charlie Daniels Band - In America (intro)

This is played by two guitars simultaneously, one in standard tuning, and one in Dropped D tuning.

Its real fast, so this is as close as I could get 'em!

***********************************************************************

FIRST GUITAR (STANDARD TUNING)

E--6---6-8-6-------------------------------------------------

B----8-------8-6---5---5-6-5---5-6---5-----------------------

G----------------7---7-------7-----0---0-7-0-0-0-5-7-5---0---

D------------------------------------------------------8-----

A------------------------------------------------------------

E------------------------------------------------------------

E--6---6-8-6-----------------------------------------------

B----8-------8-6---5---5-6-5---5-6---5---------------------

G----------------7---7-------7-----0---0-7-0-5-0---5---0---

D------------------------------------------------8---8-----

A----------------------------------------------------------

E----------------------------------------------------------

E--6---6-8-6-------------------------------------------------

B----8-------8-6---5---5-6-5---5-6---5-----------------------

G----------------7---7-------7-----0---0-7-0-0-0-5-7-5---0----

D------------------------------------------------------8-----

A------------------------------------------------------------

E------------------------------------------------------------

E--6---6-8-6-------------------------------------------------

B----8-------8-6---5---5-6-5---------------------------------

G----------------7---7-------0-0-3-0-2-0---------0-2-3-2-0---

D----------------------------------------3-0-2-0-------------

A------------------------------------------------------------

E------------------------------------------------------------

E-------------------|

B-------------------|

G-------------------|

D--2-3-5---0--5-----|

A--------3----5-----|

E-------------3-----|

***********************************************************************

SECOND GUITAR (DROPPED D TUNING)

E-----------------------------------------------------------

B--3---3-4-3-------------3-------3--------------------------

G----0-------5-3-0-5-3-5---5-3-5---0-5-0-3-0-0-0-3-5-3-2-0--

D-----------------------------------------------------------

A-----------------------------------------------------------

D-----------------------------------------------------------

E---------------------------------------------------------

B--3---3-4-3-------------3-------3------------------------

G----0-------5-3-0-5-3-5---5-3-5---0-5-0-3-0---------3----

D--------------------------------------------3-0-3-5---5--

A---------------------------------------------------------

D---------------------------------------------------------

E-----------------------------------------------------------

B--3---3-4-3-------------3-------3--------------------------

G----0-------5-3-0-5-3-5---5-3-5---0-5-0-3-0-0-0-3-5-3-2-0--

D-----------------------------------------------------------

A-----------------------------------------------------------

D-----------------------------------------------------------

E-----------------------------------------------------------

B--3---3-4-3-------------3----------------------------------

G----0-------5-3-0-5-3-5---5-0-0-3-0------------------------

D------------------------------------3-0--------------------

A----------------------------------------3-1----------------

D--------------------------------------------3-0-5-7-8-7-5--

E----------------|

B----------------|

G----------------|

D----------------|

A----------------|

D--2-3-5-0-0-5---|



simplify

key

chords

key

original:   current:  

transpose  


0

expert