Learn Singing, Guitar, Piano, Bass, Percussion at www.NEATcourses.com
Get Chords at www.NEATchords.com

d at sea
reign of darkness
Chords and lyrics

difficulty: beginner



                [Chords]

     Am7    Em7   F6add9  G

e|----x------x------x------x----|

B|----1------0------2------0----|

G|----0------0------0------0----|

D|----2------0------0------0----|

A|----0------2------3------2----|

E|----x------0------1------3----|

*On the F6add9 the low E string is fretted by the thumb

Picking pattern 1: Intro, Chorus, Outro

        *         *          *         * 

e|----0-x--|-------x--|--------x--|-------x--|

B|----1-x--|-----0-x--|------0-x--|-----0-x--|

G|---0--x--|-----0-x--|------0-x--|-----0-x--|

D|--2---x--|----0--x--|-----0--x--|----0--x--|

A|-0----x--|---2---x--|----3---x--|---2---x--|

E|------x--|--0----x--|--1-----x--|--3----x--|

* Mute by hitting the strings (audibly) with your hand/palm and tap the body of your guitar right after.

Picking pattern 2:

e|----0-x-0~----x--|-------x-------x--|--------x-------x--|-------x-------x--|

B|----1-x-1~----x--|-----0-x-0~----x--|------0-x-0~----x--|-----0-x-0~----x--|

G|---0--x-------x--|-----0-x-0~----x--|------0-x-0~----x--|-----0-x-0~----x--|

D|--2---x-------x--|----0--x-------x--|-----0--x-------x--|----0--x-------x--|

A|-0----x-0~----x--|---2---x-------x--|----3---x-------x--|---2---x-------x--|

E|------x-------x--|--0----x-0~----x--|--1-----x-1~----x--|--3----x-3~----x--|

[Intro]

Am7

    Fear Me

              Em7

I am the destruction of innocence

F6add9                      G

I am the violence embedded in flesh

Am7                         Em7

I am the pain in the bones of the mortal shell

F6add9                      G

The dark heart of the earth

            Am7         Em7

    I am hell,          ohhh

            F6add9      G

    I am hell,          oh oh

            Am7         Em7

    I am hell,          ohhh

            F6add9      G

    I am hell,          oh oh ,oh 

[Verse 1]

Am7

Tear at the throats of the fathers of deception

Em7

Let the blood of the cowards, flow as the wines

F6add9

False claims of retribution

G

May they choke on their lies

[Pre-Chorus]

                    Am7

Lay waste the relics

                Em7

Silence the hymns of deceit

F6add9

You will know pain

G

You will see the true face of panic

F6add9                  G

Devastation now and forever, Reign of Darkness

[Chorus]

Am7

    Fear Me

              Em7

I am the destruction of innocence

F6add9                      G

I am the violence embedded in flesh

Am7                         Em7

I am the pain in the bones of the mortal shell

F6add9                      G

The dark heart of the earth

            Am7         Em7

    I am hell,          ohhh

            F6add9      G

    I am hell,          oh oh

            Am7         Em7

    I am hell,          ohhh

            F6add9      G

    I am hell,          oh oh, oh 

[Verse 2]

Am7

The masses one with the cursed

Em7

Godless in time

            F6add9

No longer a helpless slave

G

to the mark of the divine

[Pre-Chorus]

                Am7

Lay waste the age of man

                Em7

Return to the Earth

F6add9

You will know pain

G

You will see the true face of panic

F6add9                   G

Devastation now and forever, Reign of Darkness

[Chorus]

Am7

    Fear Me

              Em7

I am the destruction of innocence

F6add9                      G

I am the violence embedded in flesh

Am7                        Em7

I am the pain in the bones of the mortal shell

F6add9                      G

The dark heart of the earth

            Am7         Em7

    I am hell,          ohhh

            F6add9      G

    I am hell,          oh oh

            Am7         Em7

    I am hell,          ohhh

            F6add9      G

    I am hell,          oh oh ,oh 

[Outro]

            Am7         Em7

    I am hell           

            F6add9      G

    I am hell           

            Am7         Em7

    I am hell           

            F6add9      G



simplify

key

chords

key

original:   current:  

transpose  


Am7

Em7

G

3

5

6

0

beginner