Learn Singing, Guitar, Piano, Bass, Percussion at www.NEATcourses.com
Get Chords at www.NEATchords.com

damned
dozen girls
Chords and lyrics

difficulty: expert



                 Intro

e|---------------------------------------------------------------|

B|---------------------------------------------------------------|

G|--------------------------------------------------7-5-7-5------|

D|-----7-5-7-5-7----10-8--10-8--------5-3-5-3-5-----7-7-7-7------|

A|---7--------------10-10-10-10-----5-------------5--------------|

E|-5--------------8---------------3------------------------------|  x4

play this E (bass)

e|----------------------------|

B|-------9--10---10--9--------|

G|-------9--9----9---9--------|

D|-------9--9----9---9--------|

A|----------------------------|

E|----------------------------|  x4

VERSE:

                             D       D        A       A         E      E     E       E

(won't you tell me the reason)Why?    he goes out,       almost every night      (he never goes too)

                             Far.....he's alway's the one who's got it right...........(he's got)

CHORUS:

B        B           F#              A             E          E

Charm........he's got style.....he's got a dozen girls........tell me

Why..........I don't know why...he's got a dozen girls..............

VERSE:

              D                D                A              A              E      E     E       E

Now he's always the one with all the hooks, when it comes to making it with you

          Now i would be there in his place if only i knew what it is i had to do        (tell me)

CHORUS:

B        B           F#              A             E          E

Why..........he's got style.....he's got a dozen girls........tell me

Why..........I don't know why...he's got a dozen girls..............

REPEAT SECOND PART OF INTRO: bass plays E x4

SOLO OVER VERSE CHORDS:  D   D   A   A   E    E   E   E  x2

e|--------------------------------------------------|

B|------9-10-9---------------------------9~---------|

G|-------------11~-11b-r(11)-9~--7-6----------------|

D|-9h11------------------------------9-9------------|

A|--------------------------------------------------|

E|--------------------------------------------------|

CHORUS:

B        B           F#              A             E          E

Why..........he's got style.....he's got a dozen girls........tell me

Why..........he's got style.....he's got a dozen girls..............

REPEAT SECOND PART OF INTRO: bass plays E x4

OUTRO:

E                              A



simplify

key

chords

key

original:   current:  

transpose  


D

A

E

B

F#

None

expert