Learn Singing, Guitar, Piano, Bass, Percussion at www.NEATcourses.com
Get Chords at www.NEATchords.com

dan auerbach
never in my wildest dreams
Chords and lyrics

difficulty: expert



                [Intro]

            Fmaj7                           C

e|-------0-----0--0-----0--0-----0-------0-----0--0-----0--0-----0--|      Notes: He frets the F-base with his

B|--1h3--------1--1-----1--1-----1--1h3--------1--1-----1--1-----1--|      thumb. The alternating base works

G|-------------2--2-----2--2-----2-------------0--0-----0--0-----0--|      with just shifting the ringfinger.

D|-------------3--3-----3--3-----3-------------2--2-----2--2-----2--|      PS: He throws in some extra strums

A|-------------x--x--3--x--x-----x----------3-----------------3-----|      right before the base note.

E|----------1--x--x-----x--x--1--x-------------x--x--3--x--x-----x--|

            Fmaj7                           G

e|-------0-----0--0-----0--0-----0-------------x--x-----x--x--------|

B|--1h3--------1--1-----1--1-----1--1h3--1--0--0--0-----0--0--------|

G|-------------2--2-----2--2-----2-------------0--0-----0--0--------|

D|-------------3--3-----3--3-----3-------------0--0-----0--0--------|

A|-------------x--x--3--x--x-----x-------------x--x--2--------2-----|

E|----------1--x--x-----x--x--1--x----------3-----------x--x--3-----|

[Verse 1]

                     Fmaj7

Never in my wildest dreams

                  C

Would I be loving you

                    Fmaj7

Never in my wildest dreams

                    G     G7

Would my dreams come true

                Dm

You're just too good to touch

         Am

I can't discuss it much

       Fmaj7

I get too choked up

                   G

Don't wanna make a scene

                       C

Never In My Wildest Dreams

[Interlude]                                                                           

            Fmaj7                           C

e|-------0-----0--0-----0--0-----0-------0-----0--0-----0--0-----0--|

B|--1h3--------1--1-----1--1-----1--1h3--------1--1-----1--1-----1--|

G|-------------2--2-----2--2-----2-------------0--0-----0--0-----0--|

D|-------------3--3-----3--3-----3-------------2--2-----2--2-----2--|

A|-------------x--x--3--x--x-----x----------3-----------------3-----|

E|----------1--x--x-----x--x--1--x-------------x--x--3--x--x-----x--|

            Fmaj7                           G

e|-------0-----0--0-----0--0-----0----------0--x--x-----x--x--------|

B|--1h3--------1--1-----1--1-----1--1h3--1-----0--0-----0--0--------|

G|-------------2--2-----2--2-----2-------------0--0-----0--0--------|

D|-------------3--3-----3--3-----3-------------0--0-----0--0--------|

A|-------------x--x--3--x--x-----x-------------x--x--2--------2-----|

E|----------1--x--x-----x--x--1--x----------3-----------x--x--3-----|

                                                  

[Verse 2]

                     Fmaj7

Never in my wildest dreams

                  C

Would I roam this land

                      Fmaj7

Sail across the seven seas

               G6  G7

I'm a hard luck man

                   Dm

But I know what my purpose is

                  Am

It's not on some pilgrimage

                Fmaj7

Its wherever my baby is

      G

My love supreme

                     C

Never In My Wildest Dreams

[Interlude]                                                                           

            Fmaj7                           C

e|-------0-----0--0-----0--0-----0-------0-----0--0-----0--0-----0--|

B|--1h3--------1--1-----1--1-----1--1h3--------1--1-----1--1-----1--|

G|-------------2--2-----2--2-----2-------------0--0-----0--0-----0--|

D|-------------3--3-----3--3-----3-------------2--2-----2--2-----2--|

A|-------------x--x--3--x--x-----x----------3-----------------3-----|

E|----------1--x--x-----x--x--1--x-------------x--x--3--x--x-----x--|

            Fmaj7                           G

e|-------0-----0--0-----0--0-----0----------0--x--x-----x--x--------|

B|--1h3--------1--1-----1--1-----1--1h3--1-----0--0-----0--0--------|

G|-------------2--2-----2--2-----2-------------0--0-----0--0--------|

D|-------------3--3-----3--3-----3-------------0--0-----0--0--------|

A|-------------x--x--3--x--x-----x-------------x--x--2--------2-----|

E|----------1--x--x-----x--x--1--x----------3-----------x--x--3-----|

[Verse 3]

            Dm

Walk in the cold, cold wind

          Am

Carry my laundry bin

         Fmaj7

Take my tags for a spin

             G

Watch daytime TV

                Dm

You're just too good to touch

             Am

And I can't discuss it much

          Fmaj7

I get too choked up

                  G

Don't wanna make a scene

                     C

Never In My Wildest Dreams

[Outro]

            Fmaj7                           C

e|-------0-----0--0-----0--0-----0-------0-----0--0-----0--0-----0--|

B|--1h3--------1--1-----1--1-----1--1h3--------1--1-----1--1-----1--|

G|-------------2--2-----2--2-----2-------------0--0-----0--0-----0--|

D|-------------3--3-----3--3-----3-------------2--2-----2--2-----2--|

A|-------------x--x--3--x--x-----x----------3-----------------3-----|

E|----------1--x--x-----x--x--1--x-------------x--x--3--x--x-----x--|

            Fmaj7                         Fmaj7 C

e|-------0-----0--0-----0--0-----0-------0--x---0----|

B|--1h3--------1--1-----1--1-----1--1h3-----1---1----|

G|-------------2--2-----2--2-----2----------2---0----|

D|-------------3--3-----3--3-----3----------3---2----|

A|-------------x--x--3--x--x-----x----------0---3----|

E|----------1--x--x-----x--x--1--x----------x---x----|



simplify

key

chords

key

original:   current:  

transpose  


Fmaj7

C

G

G7

Dm

Am

G6

None

expert