Learn Singing, Guitar, Piano, Bass, Percussion at www.NEATcourses.com
Get Chords at www.NEATchords.com

dan tyminski
man of constant sorrow
Chords and lyrics

difficulty: beginner



                

DROP D TUNING

CAPO ON 3RD FRET

INTRO / FILL RIFF

e---------------------------------------------------------A-

B-----------------------------------------------------------

G---------------------------------------------------------2-

D---0------0-----0-----0------0-----3-----0-----0-----0---2-

A---3H5----0-----0-----3------5-----0-----0-----0-----0---0-

D---0------0-----0-----0------0-----0-----0-----3-----0-----

                                                       

(After EVERY A Chord add the fill riff no matter where its at)

    D       G     A

e-----------------------

B-----------2-----------

G-----------0-----2-----

D---0-------0-----2-----

A---0-------x-----0-----

D---0-----3/5-----------

D                                G

I am a man of constant sorrow

              A                          (Fill Riff Here)

I've seen trouble all my day

D                            G

I bid farewell to old Kentucky

                         A                                (Fill Riff Here)

The place where I was born and raised

                                                                                      A  

(Strum the A chord then add the Fill Riff after the back-up vocals

end then start playing the chords and keep this pattern through the whole song

because every verse is the same)                  A

e-----------------------------------------------------------

B-----------------------------------------------------------

G------------------------------------------------------2----

D---0------0-----0------0-----0-----3------0-----0-----2----

A---3H5----0-----0------5-----0-----0------0-----0-----0----

D---0------0-----0------0-----0-----0------3-----0----------

                                                        

copy & paste it to your browser). This guys site is in Japanise but the lyrics

are not. Lyrics are listed alphabeticly on the left side.  Just click on the

first letter that the song you want and scroll down until you find it.  For

this song look in the "I" listing and then look for I AM A MAN OF CONSTANT

SORROW (its near the top)

Questions?/Comments?

Then e-mail me at GratefulJed_1 at lycos.com

P.S I don't open mail with attachments so dont send'em to me



simplify

key

chords

key

original:   current:  

transpose  


D

G

A

1

4

5

2

beginner