Learn Singing, Guitar, Piano, Bass, Percussion at www.NEATcourses.com
Get Chords at www.NEATchords.com

daniel johnston
grievances
Chords and lyrics

difficulty: expert



                Tuning: Standard (Capo 2)

All tabs/chords relative to Capo 2

(Intro)

e|--3--5--7--8-----7--5--3--2----------------|

B|--------------------------------3--5--7----|

G|--4--5--7--9-----7--5--4--2----------------|

D|--------------------------------4--5--7----|

A|-------------------------------------------|

E|-------------------------------------------|

G  Dsus2  Em  Bm  C  G6  D  (x2)

(Verse)

G    Dsus2   Em   Bm

If I had my own way

C           G6           D

You'd be with me here today

G            Dsus2   Em   Bm

But I rarely have my own way

               C               G6            D

I guess that's why you're not here with me today

(Chorus)

Em          Dsus2   C

And the librarian said

Em         Dsus2     C

"You can't buy no respect"

       Em    Dsus2      C

I said "Hey, lady, what can you expect

        C       D        G

When I'm lyin' on the floor?"

C  D   G

(Repeat Verse and Chorus)

You're a lovely lady but you don't wanna' be

No friend of mine

Well the only thing you ever done for me

Was help me waste my time

And I saw you at the funeral

You were standin' there like a temple

I said, "Hi, how are you, hello"

And I pulled up the casket and crawled in

Yes I did

(Arpeggiate Verse chords with higher octave barre chords)

Climbed up a mountain

And I looked around

Some kind of circus with all them clowns (Harmonic B string 7th fret)

I said "Hey, wait a minute,

Can't we slow down a bit?"

And I almost got hit by a truck (Harmonic B string 7th fret)

Well, it just goes to show ya'

That we're all on our own

Scroungin' for your own share of good luck

Stab your brother in the back

And pick up your paycheck

C Bm Am G

C Bm Am

(Repeat Verse chords in first position)

Goodbye lonely heart drawings

You never did work anyhow

I'm lookin' for a nice girl

And I don't want no cow

(Repeat Chorus)

I'm heading out West

Gonna' find me the best

Well I played the game but I failed the test

If I can't be a lover then I'll be a pest

Yes I will

(Outro)

e|--3--5--7--8-----7--5--3--2----------------1---|

B|--------------------------------3--5--7--------|

G|--4--5--7--9-----7--5--4--2--------------------|

D|--------------------------------4--5--7--------|

A|-------------------------------------------2---|

E|-------------------------------------------3---|



simplify

key

chords

key

original:   current:  

transpose  


C

G6

D

G

Bm

Am

None

expert