Learn Singing, Guitar, Piano, Bass, Percussion at www.NEATcourses.com
Get Chords at www.NEATchords.com

daniela andrade
dark passenger
Chords and lyrics

difficulty: beginner



                Everything is relative to the capo.

[Chords]

e|--------0-------------0-------------0-------------0-----------------------------|

B|--------0-------------0-------------1-------------0-----------------------------|

G|--------0-------------0-------------0-------------0-----------------------------|

D|--------9-------------9-------------2-------------4-----------------------------|

A|--------9-------------7-------------0-------------5-----------------------------|

E|--------0-------------9-------------x-------------x-----------------------------|

         Em9         C#m7b5          Am7         D6/11

************************************

[Intro]

e|--------------|--------------|--------------|--------------|--------------0-------|

B|--------------|--------------|-----------1--|-----------0--|--------------0-------|

G|-----------0--|-----------0--|--------0-----|--------0-----|-----------0--0-------|

D|--------9-----|--------9-----|-----2--------|-----4--------|--------9-------------|

A|-----9--------|-----7--------|--0-----------|--5-----------|-----9----------------|

E|--0-----------|--9-----------|--------------|--------------|--0-------------------|

[Verse]

           Em9                                                                         

You were a call

                   C#m7b5                                                                   

That I couldn't put down

                 Am7                D6/11                                                 

You stayed in my mind late into the night

            Em9                                                          

My dark passenger

                                                                             

                 Em9                                                              

It's a war in my mind

                   C#m7b5                                                                   

As you sharpen the blades

            Am7                  D6/11                                  

I try to be good, but it's not as good

          Em9

As being insane

                                                                                  

[Chorus]

                    Am7                   D6/11

Could you tell me if I had a chance to be free?

                     Am7          D6/11                                  

Cause it burns every hour of every day

      Em9

Being me

                                                                      

[Verse]

                    Em9                                                                

I've got pockets of ease

                    C#m7b5                                                                  

I've got slights of decay

                     Am7              D6/11                                   

Got a mind full of people that I once loved

       Em9                                                                  

And betrayed

                                                                                

                 Em9                                     

I go looking for fear

                    C#m7b5                                                           

Down the alleys and homes

                 Am7                    D6/11                                          

It's a war in my mind, but I can't shake off

              Em9

The joy in my bones

                                                               

[Chorus]

                    Am7                    D6/11                       

Could you tell me if I have a chance to be free?

                    Am7                  D6/11                                             

Cause I know I can love, I know that I'm doing

             Em9

More harm to me

                                                      

                     Am7                                             

It's the flashbacks, the blood

            D6/11                                                  

It's an essential need

               Am7                      D6/11                           

I've gotta get back to the boy that was taken

     Em9

From me

[Instrumental]

Em9 C#m7b5 Am7 D6/11 (x2)

Oh

[Outro]

e|--------------------------------------------------------------------------------|

B|--------------------------------------------------------------------------------|

G|--------------------0--------------------------------------------0--------------|

D|-----------------9--------------------------------------------9-----------------|

A|--------------9--------------------------------------------7--------------------|

E|-----------0--------------------------------------------9-----------------------|

  You were a call                     That I couldn't put down

e|--------------------------------------------------------------------------0------||

B|--------------------------1--------------------0--------------------------0------||

G|-----------------------0--------------------0------------------------0----0------||

D|--------------------2--------------------4------------------------9--------------||

A|-----------------0--------------------5------------------------9-----------------||

E|------------------------------------------------------------0--------------------||

You stayed in my mind late into the night        My dark passenger



simplify

key

chords

key

original:   current:  

transpose  


Em9

Am7

3

6

0

beginner