Learn Singing, Guitar, Piano, Bass, Percussion at www.NEATcourses.com
Get Chords at www.NEATchords.com

daniela andrade
stars fell on alabama
Chords and lyrics

difficulty: expert



                Tuning:Standard

Chords used: Or you can use maj7/m7 variations to get a jazzier sound I guess

A  Fm7  Bm7 E / E* Dmaj7 C#m7 ??  F#7 D#m7 G#7 C#maj7

e|--5---2---2---0---0----x----4-----------------------------------------|

B|--5---2---3---0---5----7----5---7-------7--------6--------------------|

G|--6---2---4---1--(4)---6----4---9---3---6----5---5--------------------|

D|--7---4---4---2---6----7----6---8---2---8----4---6--------------------|

A|--7---4---2---2---7----5----4---9---4---6----6---4--------------------|

E|--5---2-------0---------------------2--------4------------------------|

Intro:

A Fm7 Bm7 E*

Verse:

A   Fm7             Bm7     E*

We lived our little drama

   A      Dmaj7         C#m7    ??

We kissed in a field of white

Bm7       Bm7       E*

And stars fell on Alabama

     A      Fm7  Bm7  E*

Last night

A  Fm7             Bm7      E*  

I can't forget the glamor

     A    Dmaj7         C#m7    ??   

Your eyes held a tender light

      Bm7    Bm7       E*        

While stars fell on Alabama

     A       Dm7    A

Last night

Bridge:

F#7     Bm7         E*      C#m7    F#7

I never planned in my imagination

        Bm7 E*        A 

A situation so heavenly

F#7     Bm7        E*             C#m7        F#7  

A fairy land where no one else could enter

           D#m7  G#7            C#maj7     Bm7  E*   

And in the center just you and me

Verse:

A  Fm7               Bm7      E*      

My heart beat like a hammer

   A    Dmaj7            C#m7     ??

My arms wound around you tight

    Bm7   Bm7        E7

And stars fell on Alabama

     A      Fm7  Bm7  E*

Last night

whistling- same chords as verse

A Fm7 Bm7 E* A Dmaj7 C#m7 ?? Bm7 Bm7 E* A Dm7 A

F#7     Bm7         E*      C#m7    F#7

I never planned in my imagination

        Bm7 E*        A 

A situation so heavenly

F#7     Bm7        E*             C#m7        F#7  <-the progression listed below works better here

A fairy land where no one else could enter

           D#m7  G#7            C#maj7     Bm7  E*   

And in the center just you and me, dear

A  Fm7               Bm7      E*      

My heart beat like a hammer (hammer)

   A    Dmaj7            C#m7     ??

My arms wound around you tight

    Bm7   Bm7        E*

And stars fell on Alabama

        A     Dmaj7 Dm7 A or Amaj7 to finish

Last....night

Appendix

-----------------------------------

Progression during: A fairy land...

Not 100% sure on this - corrections welcome

e|-----------------------------------------|

B|-----------3----3----?----2----2----2----|

G|--3--------2----2----6----4----2----2----|

D|--2--------4----4----4----3----4----2----|

A|--4--------2----0----x----4----4----4----|

E|--2------------------4---------2---------|

A fairy land where no one else could enter

e|-----------------------------------------|

B|--------------7---------6-----------3-5--|

G|--------------6----5----5-----------2-7--|

D|--------------8----4----6-----------4-6--|

A|--------------6----6----4-----------2-7--|

E|-------------------4---------------------|

And in the center just you and me



simplify

key

chords

key

original:   current:  

transpose  


A

Dm7

Bm7

E7

None

expert

 

Learn the NEW Way to Sing With Freedom, Confidence, and Control

click to watch now