Learn Singing, Guitar, Piano, Bass, Percussion at www.NEATcourses.com
Get Chords at www.NEATchords.com

daniele pino
viento
Chords and lyrics

difficulty: expert



[The following text is in the "ISO-8859-1" character set]

[Your display is set for the "US-ASCII" character set]

Filename: viento.tab

Song Title: VIENTO (by the LP: Pino Daniele)

File Format: TAB

This one may sound difficult at a first listening but it is not. Basically

turns

around the Dm, Am, Bb and E chords. The structure is:

INTRO

BRIDGE

VERSE

BRIDGE

VERSE

After the 2nd VERSE play the bridge without the last two bars and end with

and

open A (major, not minor) chord.

The chords followed by the ~ sign mean that the chord must be played

arpeggio.

The distance between the notes gives an idea of the duration (---- is a

quarter

and -- is an 8th. For the ending of the BRIDGE is essential to listen to

the

record to get the exact tempo)

I hope the whole thing makes sense. Have fun.

INTRO

|-7~ ---8----10----|--8--7--5---------|-7~

---8----10----|--8--7--5---------|

|-6~ --------------|------------------|-6~

--------------|------------------|

|-5~ --------------|------------------|-5~

--------------|------------------|

|-0~ --------------|------------------|-0~

--------------|------------------|

|------------------|--0----------0----|------------------|--0----------0--

--|

|------------------|------------------|------------------|----------------

--|

|----1--0------------|----------------|-----------------|

|-3~ ------3---------|----------------|-----------------|

|-3~ ---------5--3---|--2--------2----|--1~ -------1----|

|-3~ ----------------|----------------|--2~ ------------|

|-1~ ---------3--1---|--0-------------|--2~ ------------|

|--------------------|----------------|--0~ ------------|

BRIDGE after the INTRO and after each VERSE

|----This takes two measures-----|

|-------------0--3-|-5----2---------|--------------------------------|

|----------2-------|-3---------3----|-6-8-6---5-7-5---4-6-4---3-5-3--|

|-------2----------|-2--------------|-6---6---5---5---4---4---3---3--|

|----2-------------|-0--------------|-5---5---4---4---3---3---2---2--|

|-0----------------|----------------|-6---6---5---5---4---4---3---3--|

|------------------|----------------|--------------------------------|

|-------    Play this twice  ---------|

|-----------------|:-------1---------|-------0---------:|

|-1--0-------3~ --|:----3------------|----1------------:|

|-------2----3~ --|:-----------------|-----------------:|

|------------3~ --|:-----------------|-----------------:|

|-0----------1~ --|:-0---------------|-0---------------:|

|-----------------|:------------0----|------------0----:|

VERSE

|-------1---------|-------0---------|------1----0----|---------------|

|----3------------|----1------------|-3~ ------------|-1--------1----|

|-----------------|-----------------|-3~ ------------|-2-------------|

|-----------------|-----------------|-3~ ------------|-2-------------|

|-0---------------|-0---------------|-1~ ------------|-0-------------|

|------------0----|------------0----|----------------|---------------|

|-Play this twice-|

|----------------|----------------|-3~ ---1----0----|-------5---------|

|-0~ --3----1----|------0----1----|-2~ -------------|----6-------6----|

|-1~ ------------|-2--------------|-2~ -------------|------------5----|

|-2~ ------------|-2--------------|-0~ -------------|-0---------------|

|----------------|-0--------------|-----------------|-----------------|

|-0~ ------------|----------------|-----------------|-----------------|

|--Play this twice--|--Play this twice--|

|-------------------|-------------------|-1~ --0---------|---------------|

|-3--3--3--3--3--3--|-1--1--1--1--1--1--|-3~ -------3----|-1~ ------1----|

|-3--3--3--3--3--3--|-2--2--2--2--2--2--|-2~ ------------|-2~ -----------|

|-3--3--3--3--3--3--|-2--2--2--2--2--2--|-0~ ------------|-2~ -----------|

|-1--1--1--1--1--1--|-0--0--0--0--0--0--|----------------|-0~ -----------|

|-------------------|-------------------|----------------|---------------|

|----------------|

|-3~ ------------|

|-3~ --2----1----|

|-3~ -------2----|

|-1~ -------2----|

|-----------0----|

VIENTO

Viento

scioscia stanotte

trase pe' sotta

e fatte senti'

viento viento

viento nce resta

pe'nce 'ncazza'

trase dint'e piazze

rump'e feneste

e nun te ferma'

viento viento

puorteme 'e voci

'e chi vo' allucca'

--

Daniel Mennella



simplify

key

chords

key

original:   current:  

transpose  


0

expert

 

Learn the NEW Way to Sing With Freedom, Confidence, and Control

click to watch now