Learn Singing, Guitar, Piano, Bass, Percussion at www.NEATcourses.com
Get Chords at www.NEATchords.com

dave barnes
love in the remains
Chords and lyrics

difficulty: expert



----------------------------------------------------------------------------

----------------------------------------------------------------------------

Tuning: STANDARD (Capo 3)

CHORDS USED

   A2   E  D/F#  G  F#m7 Abm7  B2 C#m Am7

e|--0---0---0----3-------------0---0----------------------------------------

B|--0---0---3----3-------------0---0----------------------------------------

G|--2---1---2----0----2---4----4---6---5------------------------------------

D|--2---2---0----0----2---4----4---6---5------------------------------------

A|--0---2---0----2-------------2---4----------------------------------------

E|------0---2----3----2---4------------5------------------------------------

A2                      E

It must hurt your mouth to lie like that

A2                          E

Knowing deep down you disagree

A2                         E

We both tell ourselves the love is gone

A2                        E   D/F#

Truth is it will never leave

G                D/F#                  A2   E  D/F#

I wish I had the words to make things right

G              D/F#                   A2  E  D/F#

They all get caught, my throat gets tight

G      D/F#     A2  E                   B2   

Everything I do, it all seems to go so wrong

 E   F#m7 Abm7  A2            B2        E 

This house of love has come tumbling down

     E  F#m7 Abm7  A2        B2

It could not withstand the strain

E    F#m7 Abm7   A2                 B2             E

Somewhere deep down, between the rubble and the ground

         E  F#m7 Abm7 A2    B2     A2

There’s love    in   the remains

 A2                      E

I can’t tell you how this hurts me so

A2                          E

See without you I’m half of me

A2                           E 

So with the same mouth I’ve used to beat you down

A2                  E    D/F#

I offer up my apologies

G                D/F#                  A2   E  D/F#

I wish I had the words to make things right

G              D/F#                   A2  E  D/F#

They all get caught, my throat gets tight

G      D/F#     A2  E                   B2   

Everything I do, it all seems to go so wrong

 A2            C#m            B2

I wish it came down to just desire

E        F#m7           Abm7     Am7

I wish it came down to just my will

G                D/F#                  A2

It’s true it takes one to tear down

       E               B2

But it takes two to rebuild

      A2

To rebuild



simplify

key

chords

key

original:   current:  

transpose  


E

F#m7

Abm7

Am7

None

expert